Oops, an error
Loading. Please wait.

Death Wish tab

40 views 1 this week
no commentswrite comment
1 2 3 4 5
3 more votes to show rating
add to favorites
×
Save as Personal and add changes to this tab that will be seen only by you. Learn more ›
×
You can save this tab as Personal to edit and correct it or add notes. All changes will be seen only by you. Learn more »
launch autoscroll
font size
0
reset
how to read this tab
guitar tuner
edit
Autoscroll
slow
fast
+/-
esc
set tempo
stop
SEAL ALL SORROW - DEATH WISH TABS
Seal all sorrow is a metalcore/post-hardcore band from east malaysia. I think this tab
is not 100% accurate, but just try it out!

[Intro]

D|---------------------------------------------------------------------------|
A|---------------------------------------------------------------------------|
F|---------------------------------------------------------------------------|
C|----9--------------55------------------------------------------------------| 4x
G|----9-00--9--7--5--55-00--5h7--00--4h5-------------------------------------|
C|----9-00-----------55-00-------00------------------------------------------|
        xx              xx       xx
D|--------------------------------------------------------------------------------------|
A|--------------------------------------------------------------------------------------|
F|--------------------------------------------------------------------------------------|
C|--------5-55-555-7-7-7777-7-77-7----4-44-444-4-4444-4-44-5-4-44-444-4-4444-4-44-4nh---|
G|----00--5-55-555-7-7-7777-7-77-7----4-44-444-4-4444-4-44-5-4-44-444-4-4444-4-44--~~---|
C|----00--5-55-555-7-7-7777-7-77-7----4-44-444-4-4444-4-44-5-4-44-444-4-4444-4-44-------|
      xx    xx         xxxx   xx        xx       xxxx   xx     xx       xxxx   xx

D|-------------------------------------------------------------------------------------|
A|-------------------------------------------------------------------------------------|
F|-------------------------------------------------------------------------------------|
C|---4-44-444-4-4444-4-44-5-4-44-444-540-540----9---------------------5-------4--------|
G|---4-44-444-4-4444-4-44-5-4-44-444-540-540----9--10-9--10-9--10-9---5--6-5--4--4-5---|
C|---4-44-444-4-4444-4-44-5-4-44-444-540-540----9-9-----9-----9-----9-5-5---5-4-4---7--|
       xx       xxxx   xx     xx     xxx xxx

D|-----------------------------------------------------------------|
A|-----------------------------------------------------------------|
F|-----------------------------------------------------------------|
C|---9---------------------5-------4--------5555-5-555555--7777-7--|
G|---9--10-9--10-9--10-9---5--6-5--4--4-5---5555-5-555555--7777-7--|
C|---9-9-----9-----9-----9-5-5---5-4-4---7--5555-5-555555--7777-7--|
                                            xxxx   xxxxxx  xxxx

[Verse]

D|---------------------------------------------------------------------------|
A|---------------------------------------------------------------------------|
F|---------------------------------------------------------------------------|
C|-9-99-9-999999-9-99-9-99-9-99-5-5555-5-555555-5-55-5-55-5-55---------------|
G|-9-99-9-999999-9-99-9-99-9-99-5-5555-5-555555-5-55-5-55-5-55---------------|
C|-9-99-9-999999-9-99-9-99-9-99-5-5555-5-555555-5-55-5-55-5-55---------------|
     xx   xxxxxx   xx   xx   xx   xxxx   xxxxxx   xx   xx   xx                 3X
D|---------------------------------------------------------------------------|
A|---------------------------------------------------------------------------|
F|---------------------------------------------------------------------------|
C|-9-99-9-999999-9-99-9-99-9-99-4-4444-4-444444-4-44-4-44-4-44---------------|
G|-7-77-7-777777-7-77-7-77-7-77-4-4444-4-444444-4-44-4-44-4-44---------------|
C|------------------------------4-4444-4-444444-4-44-4-44-4-44---------------|
     xx   xxxxxx   xx   xx   xx   xxxx   xxxxxx   xx   xx   xx


[Pre-Chorus]

1st guitar

D|---------------------------------------------------------------------------|
A|---------------------------------------------------------------------------|
F|---------------------------------------------------------------------------|
C|--555555-77777777-999999-77777777--55555555-777777777-7777-7-7777-7--------|
G|--555555-77777777-999999-77777777--55555555-777777777-7777-7-7777-7--------|
C|--555555-77777777-999999-77777777--55555555-777777777-7777-7-7777-7--------|
                                                        xxxx   xxxx
2nd guitar

D|--15-15-14----------9-12-10-------14-15-14-------9-12-10----15-14---15 14---15-14---15-14---15-14---15-|
A|-----------17-14-10---------10/12----------12 10---------10------15-------15-----15------15------15----|
F|-------------------------------------------------------------------------------------------------------|
C|-------------------------------------------------------------------------------------------------------|
G|-------------------------------------------------------------------------------------------------------|
C|-------------------------------------------------------------------------------------------------------|

D|----------------------------|
A|---14-17---14-17---14-17br--|
F|-14------14------14---------|
C|----------------------------|
G|----------------------------|
C|----------------------------|

*PLAY 1ST GUITAR AGAIN WITHOUT LEAD/2ND GUITAR


[Verse]

1st guitar

D|---------------------------------------------------------------------------|
A|---------------------------------------------------------------------------|
F|---------------------------------------------------------------------------|
C|-9-99-9-999999-9-99-9-99-9-99-5-5555-5-555555-5-55-5-55-5-55---------------|
G|-9-99-9-999999-9-99-9-99-9-99-5-5555-5-555555-5-55-5-55-5-55---------------|
C|-9-99-9-999999-9-99-9-99-9-99-5-5555-5-555555-5-55-5-55-5-55---------------|
     xx   xxxxxx   xx   xx   xx   xxxx   xxxxxx   xx   xx   xx                 3X

D|---------------------------------------------------------------------------|
A|---------------------------------------------------------------------------|
F|---------------------------------------------------------------------------|
C|-9-99-9-999999-9-99-9-99-9-99-4-4444-4-444444-4-44-4-44-4-44---------------|
G|-7-77-7-777777-7-77-7-77-7-77-4-4444-4-444444-4-44-4-44-4-44---------------|
C|------------------------------4-4444-4-444444-4-44-4-44-4-44---------------|
     xx   xxxxxx   xx   xx   xx   xxxx   xxxxxx   xx   xx   xx

2nd guitar

D|---------------------------------------------------------------------------------|
A|---------------------------------------------------------------------------------|
F|---------------------------------------------------------------------------------|
C|---------------------------------------------------------------------------------|
G|-999999999999999999999999/------12-12-12-12-12-12-12-12\--55555555555555555555---|
C|---------------------------------------------------------------------------------|

D|---------------------------------------------------------------------------------|
A|---------------------------------------------------------------------------------|
F|---------------------------------------------------------------------------------|
C|555555555555-77777777777777777777777777777777-444444444444444444444444444444444--|
G|---------------------------------------------------------------------------------|
C|---------------------------------------------------------------------------------|


[Pre-Chorus]

1st guitar

D|---------------------------------------------------------------------------|
A|---------------------------------------------------------------------------|
F|---------------------------------------------------------------------------|
C|--555555-77777777-999999-77777777--55555555-777777777-7777-7-7777-7--------|
G|--555555-77777777-999999-77777777--55555555-777777777-7777-7-7777-7--------|
C|--555555-77777777-999999-77777777--55555555-777777777-7777-7-7777-7--------|
                                                        xxxx   xxxx
2nd guitar

D|-15-14---15-14---15-14-------------------------14-15--14-15--14-------------------|
A|------15------15---------14-17---14-17---14--17-----12-----12----14-15--14-15--14-|
F|-----------------------14------14------14----------------------14-----14-----14---|
C|----------------------------------------------------------------------------------|
G|----------------------------------------------------------------------------------|
C|----------------------------------------------------------------------------------|

D|-15-14--15-14--15-14--15-14--15-14--15-----------------------|
A|------15-----15-----15-----15----15----14-17--14-17--14-17b--|
F|-------------------------------------14-----14-----14--------|
C|-------------------------------------------------------------|
G|-------------------------------------------------------------|
C|-------------------------------------------------------------|

*PLAY 1ST GUITAR AGAIN WITHOUT LEAD/2ND GUITAR


[Solo]

RHYTHM GUITAR

D|---------------------------------------------------------------------------------------|
A|---------------------------------------------------------------------------------------|
F|---------------------------------------------------------------------------------------|
C|--555555-77777777-999999-77777777--555555-777777777-999999-77777777-55555555-77777777--|
G|--555555-77777777-999999-77777777--555555-777777777-999999-77777777-55555555-77777777--|
C|--555555-77777777-999999-77777777--555555-777777777-999999-77777777-55555555-77777777--|

LEAD GUITAR

D|--15-15-14----------9-12-10-------14-15-14-------9-12-10----15-14---15 14-14/17-17-17-19-19-17-17--|
A|-----------17-14-10---------10/12----------12 10---------10------15--------------------------------|
F|---------------------------------------------------------------------------------------------------|
C|---------------------------------------------------------------------------------------------------|
G|---------------------------------------------------------------------------------------------------|
C|---------------------------------------------------------------------------------------------------|

D|-19-19-19-19-21-21-21-21-22-22-22-21-21-19-19-17-17-19-19-19-19-19-17-15-15-15-17-17-17-17---|
A|---------------------------------------------------------------------------------------------|
F|---------------------------------------------------------------------------------------------|
C|---------------------------------------------------------------------------------------------|
G|---------------------------------------------------------------------------------------------|
C|---------------------------------------------------------------------------------------------|

D|-19-19-19-19-21-21b--|
A|---------------------|
F|---------------------|
C|---------------------|
G|---------------------|
C|---------------------|


[Final chorus]

(I NEED TO BREATH..)

D|-----------------------------------------------------------------------------|
A|-----------------------------------------------------------------------------|
F|-----------------------------------------------------------------------------|
C|--5555-5-555555-7777-7-777777--9999-9-99-9-999999-9-99-9-9-------------------|
G|--5555-5-555555-7777-7-777777--9999-9-99-9-999999-9-99-9-9-------------------|
C|--5555-5-555555-7777-7-777777--9999-9-99-9-999999-9-99-9-9-------------------|


************************************
| x   Palm mute
| h   Hammer-on
| b   Bend
| br  Bend release
| pb  Pre-bend
| pbr Pre-bend release
| /   Slide up
| \   Slide down
| nh  Natural harmonic
*********************************

            
            
Suggest correction
Creating personal tab
Creating personal tab
You can edit any tab online and save it as your Personal.

You can edit, replace or remove any tab part or add personal notes – all changes will be seen only by you.

Personal tabs can be accessed anytime from any device, even offline.
Learn more »
Give kudos to tab author, rate the tab!
1 2 3 4 5
comments
print report bad tab
guest
You may want to rate the tab now too:
select rating
Wanna post a correction for this tab? Suggest correction