Oops, an error
Loading. Please wait.

Summer Breeze chords

version 6
version 6

Interactive

7,133 views 18 this week
no commentswrite comment
1 2 3 4 5
x 11
add to favorites
×
Save as Personal and add changes to this tab that will be seen only by you. Learn more ›
×
You can save this tab as Personal to edit and correct it or add notes. All changes will be seen only by you. Learn more »
launch autoscroll
font size
0
reset
transpose
0
reset
display chords
guitar tuner
edit
Autoscroll
slow
fast
+/-
esc
set tempo
stop
Author
Unregistered
Strumming
There is no strumming pattern for this song yet. and get +5 IQ
[Intro]

e|--------------|   
B|----0-1-------|
G|----0-0-------|
D|----2-2-------|
A|--2-2-0-------|
E|0-------------|x2 
  
e|-0-3--10--8--7--5--5--3-----0--|
B|-0-5---------------------3--0--|
G|------12--9--9--7--7--5--5-----|
D|-------------------------------|
A|-------------------------------|
E|-------------------------------|x2


[Verse]

E                  G
  See the curtains hanging in the window
D                     A           E    Am7
  In the evening on a Friday night
E                  G
  A little light a shinin' through the window
D                   A                E    
  Lets me know everything is all right


[Chorus]

Am               Bm
  Summer breeze, makes me feel fine
Am                                  G  Gsus4
  Blowing through the jasmine in my mi ind

e|-------------|
B|-0-1-3-1-0---|
G|-0-0-0-0-0-0-|
D|-----------2-|
A|-------------|
E|-------------|

Am               Bm
  Summer breeze, makes me feel fine
Am                                  G  Gsus4
  Blowing through the jasmine in my mi ind


e|-------------|
B|-0-1-3-1-0---|
G|-0-0-0-0-0-0-|
D|-----------2-|
A|-------------|
E|-------------|




e|-0-3--10--8--7--5--5--3-----0--|
B|-0-5---------------------3--0--|
G|------12--9--9--7--7--5--5-----|
D|-------------------------------|
A|-------------------------------|
E|-------------------------------|x2


[Verse]

E               G
  See the paper laying on the sidewalk
D                         A             E    Am7
  A little music from the house next door
E               G
  So I walk on up to the doorstep
D                         A             E    
  Through the screen and across the floor


[Chorus]

Am               Bm
  Summer breeze, makes me feel fine
Am                                  G   Gsus4
  Blowing through the jasmine in my mi  ind

e|-------------|
B|-0-1-3-1-0---|
G|-0-0-0-0-0-0-|
D|-----------2-|
A|-------------|
E|-------------|

Am               Bm
  Summer breeze, makes me feel fine
Am                                  G   Gsus4
  Blowing through the jasmine in my mi  ind

e|-------------|
B|-0-1-3-1-0---|
G|-0-0-0-0-0-0-|
D|-----------2-|
A|-------------|
E|-------------|


[Bridge]

Em               Am7          Em        Am7
  Sweet days of summer, the jasmines in bloom
Em         Am7              Em       Am7
  July is dressed up and playing her tune.
             Am7/D       Bm7/E
  And I come home from a hard days work
             Am7/D               Bm7/E       E
  And you're waiting there not a care in the world


[Verse]

E                G
  See the smile waitin in the kitchen
D                  A           E    Am7
  Food cooking and plates for two
E                    G
  Feel the arms that reach out to hold me
D                         A              E    
  In the evening when the day is through


[Chorus]

Am               Bm
  Summer breeze, makes me feel fine
Am                                  G   Gsus4 
  Blowing through the jasmine in my mi  ind

e|-------------|
B|-0-1-3-1-0---|
G|-0-0-0-0-0-0-|
D|-----------2-|
A|-------------|
E|-------------|

Am               Bm
  Summer breeze, makes me feel fine
Am                                  G  Gsus4
  Blowing through the jasmine in my mi ind

e|-------------|
B|-0-1-3-1-0---|
G|-0-0-0-0-0-0-|
D|-----------2-|
A|-------------|
E|-------------|

e|-0-3--10--8--7--5--5--3-----0--|
B|-0-5---------------------3--0--|
G|------12--9--9--7--7--5--5-----|
D|-------------------------------|
A|-------------------------------|
E|-------------------------------|

e|-0-3--10--8--7--5--5--3-----0--|
B|-0-5---------------------3--0--|
G|------12--9--9--7--7--5--5--1--|
D|----------------------------2--|
A|----------------------------2--|
E|----------------------------0--|


Standard Tuning

E-022100
G-320033
D-xx0232
A-002220
C-032013
B7-224242
Bm-224432

            
            
Suggest correction
Creating personal tab
Creating personal tab
You can edit any tab online and save it as your Personal.

You can edit, replace or remove any tab part or add personal notes – all changes will be seen only by you.

Personal tabs can be accessed anytime from any device, even offline.
Learn more »
comments
print report bad tab
guest
Wanna post a correction for this tab? Suggest correction