Oops, an error
Loading. Please wait.

We May Never Pass This Way Again Bass Tab

4 views 3 this week
no commentswrite comment
1 2 3 4 5
2 more votes to show rating
add to favorites
launch autoscroll
font size
0
reset
guitar tuner
Autoscroll
slow
fast
+/-
esc
set tempo
stop
Help us to improve Ultimate-Guitar.com Take our survey!
×
Author
Difficulty
novice
About this tab version
This song reached #21 on the U.S. Billboard Hot 100 in 1973. Was this info helpful? Yes No
  Rest for 7 bars
  [Verse]
G|----------------|----------------|----------------|----------------|
D|----------------|----------------|----------------|----------------|
A|----------------|----------------|----------------|----------------|
E|0-----------0---|0-----------0---|4-----------4---|4-----------4---|

G|----------------|----------------|----------------|----------------|
D|----------------|----------------|----------------|----------------|
A|0-----------0---|0-----------0---|----------------|----------------|
E|----------------|----------------|0-----------0---|0-----------0---|

G|----------------|----------------|----------------|----------------|
D|----------------|----------------|----------------|----------------|
A|----------------|----------------|----------------|----------------|
E|0-----------0---|0-----------0---|4-----------4---|4-----------4---|

G|----------------|----------------|----------------|----------------|
D|----------------|----------------|----------------|----------------|
A|0-----------0---|0-----------0---|----------------|----------------|
E|----------------|----------------|0-----------0---|0-----------0---|

G|----------------|----------------|----------------|----------------|
D|----------------|----------------|----------------|----------------|
A|----------------|----------------|----------------|3-----------3---|
E|1-----------1---|1-----------1---|3-----------3---|----------------|

G|----------------|----------------|----------------|----------------|
D|----------------|----------------|----------------|----------------|
A|----------------|----------------|3-----------3---|3-----------3---|
E|1-----------1---|1-----------1---|----------------|----------------|

G|----------------|----------------|----------------|----------------|
D|----------------|----------------|----------------|----------------|
A|----------------|----------------|3-----------3---|3-----------3---|
E|1-----------1---|1-----------1---|----------------|----------------|

G|----------------|----------------|----------------|----------------|
D|----------------|0-----------0---|----------------|----------------|
A|----------------|----------------|2-----------2---|2-----------2---|
E|0-----------0---|----------------|----------------|----------------|

                                    We
G|----------------|----------------|----------------|----------------|
D|----------------|0-----------0---|----------------|----------------|
A|0-----------0---|----------------|2-----------2---|2-----------2---|
E|----------------|----------------|----------------|----------------|

G|----------------|----------------|----------------|----------------|
D|----------------|0-----------0---|----------------|----------------|
A|----------------|----------------|2-----------2---|2-----------2---|
E|0-----------0---|----------------|----------------|----------------|

G|----------------|----------------|----------------|----------------|
D|----------------|0-----------0---|----------------|----------------|
A|0-----------0---|----------------|2-----------2---|2-----------2---|
E|----------------|----------------|----------------|----------------|

G|----------------|----------------|----------------|----------------|
D|----------------|----------------|----------------|----------------|
A|----------------|----------------|----------------|----------------|
E|0-----------0---|0-----------0---|0---------------|0---------------|

G|----------------|----------------|----------------|----------------|
D|----------------|----------------|----------------|----------------|
A|----------------|----------------|----------------|----------------|
E|0---------------|0---------------|0---------------|0---------------|

G|----------------|----------------|
D|----------------|----------------|
A|----------------|----------------|
E|0---------------|0---------------|

  [Verse]
G|----------------|----------------|----------------|----------------|
D|----------------|----------------|----------------|----------------|
A|----------------|----------------|----------------|----------------|
E|0-----------0---|0-----------0---|4-----------4---|4-----------4---|

G|----------------|----------------|----------------|----------------|
D|----------------|----------------|----------------|----------------|
A|0-----------0---|0-----------0---|----------------|----------------|
E|----------------|----------------|0-----------0---|0-----------0---|

G|----------------|----------------|----------------|----------------|
D|----------------|----------------|----------------|----------------|
A|----------------|----------------|----------------|----------------|
E|0-----------0---|0-----------0---|4-----------4---|4-----------4---|

G|----------------|----------------|----------------|----------------|
D|----------------|----------------|----------------|----------------|
A|0-----------0---|0-----------0---|----------------|----------------|
E|----------------|----------------|0-----------0---|0-----------0---|

G|----------------|----------------|----------------|----------------|
D|----------------|----------------|----------------|----------------|
A|----------------|----------------|----------------|3-----------3---|
E|1-----------1---|1-----------1---|3-----------3---|----------------|

G|----------------|----------------|----------------|----------------|
D|----------------|----------------|----------------|----------------|
A|----------------|----------------|3-----------3---|3-----------3---|
E|1-----------1---|1-----------1---|----------------|----------------|

G|----------------|----------------|----------------|----------------|
D|----------------|----------------|----------------|----------------|
A|----------------|----------------|3-----------3---|3-----------3---|
E|1-----------1---|1-----------1---|----------------|----------------|

G|----------------|----------------|----------------|----------------|
D|----------------|0-----------0---|----------------|----------------|
A|----------------|----------------|2-----------2---|2-----------2---|
E|0-----------0---|----------------|----------------|----------------|

                                    We
G|----------------|----------------|----------------|----------------|
D|----------------|0-----------0---|----------------|----------------|
A|0-----------0---|----------------|2-----------2---|2-----------2---|
E|----------------|----------------|----------------|----------------|

G|----------------|----------------|----------------|----------------|
D|----------------|0-----------0---|----------------|----------------|
A|----------------|----------------|2-----------2---|2-----------2---|
E|0-----------0---|----------------|----------------|----------------|

G|----------------|----------------|----------------|----------------|
D|----------------|0-----------0---|----------------|----------------|
A|0-----------0---|----------------|2-----------2---|2-----------2---|
E|----------------|----------------|----------------|----------------|

G|----------------|----------------|
D|----------------|----------------|
A|----------------|----------------|
E|0-----------0---|0-----------0---|

  [Bridge]
G|----------------|----------------|----------------|----------------|
D|----------------|----------------|----------------|----------------|
A|3-----------3---|3-----------3---|----------------|----------------|
E|----------------|----------------|3-----------3---|3-----------3---|

G|----------------|----------------|----------------|----------------|
D|----------------|----------------|----------------|----------------|
A|3-----------3---|3-----------3---|----------------|----------------|
E|----------------|----------------|3-----------3---|3-----------3---|

G|----------------|----------------|----------------|----------------|
D|----------------|----------------|----------------|----------------|
A|3-----------3---|0-----------0---|----------------|----------------|
E|----------------|----------------|3-----------3---|0-----------0---|

G|----------------|----------------|----------------|----------------|
D|----------------|----------------|0---------------|0-----------0---|
A|0-----------0---|0-----------0---|----------------|----------------|
E|----------------|----------------|----------------|----------------|

G|----------------|----------------|----------------|----------------|
D|----------------|----------------|----------------|----------------|
A|3-----------3---|3-----------3---|----------------|----------------|
E|----------------|----------------|3-----------3---|3-----------3---|

G|----------------|----------------|----------------|----------------|
D|----------------|----------------|----------------|----------------|
A|3-----------3---|3-----------3---|----------------|----------------|
E|----------------|----------------|3-----------3---|3-----------3---|

G|----------------|----------------|----------------|----------------|
D|----------------|----------------|----------------|----------------|
A|3-----------3---|3-----------3---|----------------|----------------|
E|----------------|----------------|0-----------0---|0-----------0---|

G|----------------|----------------|----------------|----------------|
D|----------------|----------------|0---------------|0-----------0---|
A|0-----------0---|0-----------0---|----------------|----------------|
E|----------------|----------------|----------------|----------------|

                                    [Outro]
G|----------------|----------------|----------------|----------------|
D|----------------|----------------|----------------|----------------|
A|1-------1-------|1-------1---1---|2-----------2---|2-----------2---|
E|----------------|----------------|----------------|----------------|

G|----------------|----------------|----------------|----------------|
D|----------------|----------------|----------------|----------------|
A|----------------|----------------|2-----------2---|2-----------2---|
E|0-----------0---|0-----------0---|----------------|----------------|

  Keep repeating the above 4 bars

  [Ending]
G|----------------|----------------|
D|----------------|----------------|
A|----------------|----------------|
E|0-----------0---|0-----------0---|

  Slow
G|----------------|----------------|----------------|----------------|
D|----------------|----------------|----------------|----------------|
A|----------------|----------------|0---------------|------------0---|
E|0---------------|------------0---|----------------|----------------|

G|----------------|----------------|----------------|----------------|
D|----------------|----------------|----------------|----------------|
A|----------------|----------------|0---------------|------------0---|
E|0---------------|------------0---|----------------|----------------|

G|----------------|
D|----------------|
A|----------------|
E|0---------------|
Suggest correction
Give kudos to tab author, rate the tab!
1 2 3 4 5
comments
print report bad tab
guest
You may want to rate the tab now too:
select rating
Wanna post a correction for this tab? Suggest correction