Oops, an error
Loading. Please wait.

Baby I Do Tab

3,844 views 9 this week
no commentswrite comment
1 2 3 4 5
please rate
add to favorites
launch autoscroll
font size
0
reset
how to read this tab
guitar tuner
Tab Pro tools
  • play this tab
  • loop segment
  • change instrument
  • show fretboard
  • metronome
Autoscroll
slow
fast
+/-
esc
set tempo
stop
Difficulty
intermediate

"Baby I Do"
 Sean Hayes


  I based this tablature off of the solo acoustic version.
Most of the song is the muted strum rhthym; I just showed
where the chords are played in relation to the lyrics.
Precise timing and strum patterns may be established from
the song itself. This is the way Hayes plays it in the
version off of which it is based, without question.
  Note the peculiar tuning for this song, which I have been
unable to locate anywhere else. I used a chord generator
in finding names for the chords in this tuning, but they
were all very uncommon and technical, so I just tabbed the
individual notes for each one.

  Anyway, I hope you enjoy playing "Baby I Do," which is
one of my favourite songs from the very talented Sean Hayes.

                                     -Michael, a Guitarist,


(Tabbed 28 November, 2009)

"Baby I Do"
Sean Hayes
Flowering Spade (2007)


Bb Gb B E Ab Bb tuning
*-Indicate strumming unmuted chord

INTRO:

Bb|--2--2-----------3--3----------------------|
Ab|--3--3-----------3--3---7--7---------5--5--|
 E|--4--4-----------4--4---7--7---------5--5--|
 B|--4--4-----------5--5---7--7---------5--5--|
Gb|--2--2-----------5--5---5--5---------3--3--|
Bb|--2--2-----------3--3---5--5---------3--3--|

Bb|--2--2-----------3--3---------------3*---3-2--|
Ab|--3--3-----------3--3----------5*---3*---3-2--|
 E|--4--4-----------4--4----------5*---4*---4-3--|
 B|--4--4-----------5--5----------5*---5*---5-4--|
Gb|--2--2-----------5--5----------3*---5*---5-4--|
Bb|--2--2-----------3--3----------3*---3*---3-2--|

VERSE:

Bb|--2--2-----------3--3----------------------|
Ab|--3--3-----------3--3---7--7---------5--5--|
 E|--4--4-----------4--4---7--7---------5--5--|
 B|--4--4-----------5--5---7--7---------5--5--|
Gb|--2--2-----------5--5---5--5---------3--3--|
Bb|--2--2-----------3--3---5--5---------3--3--|
         We fall down,        get back up

Bb|--2--2-----------3--3---------------3*---3-2--|
Ab|--3--3-----------3--3----------5*---3*---3-2--|
 E|--4--4-----------4--4----------5*---4*---4-3--|
 B|--4--4-----------5--5----------5*---5*---5-4--|
Gb|--2--2-----------5--5----------3*---5*---5-4--|
Bb|--2--2-----------3--3----------3*---3*---3-2--|
     We hold eachother,  fall in lo----ve

Bb|--2--2-------------3--3-------------------------------|
Ab|--3--3-------------3--3---7--7-----------5--5---------|
 E|--4--4-------------4--4---7--7-----------5--5---------|
 B|--4--4-------------5--5---7--7-----------5--5---------|
Gb|--2--2-------------5--5---5--5-----------3--3---------|
Bb|--2--2-------------3--3---5--5-----------3--3---------|
         Now we're walking;       your steps     and mine

Bb|--2--2-----------3--3---------------3*---3-2--|
Ab|--3--3-----------3--3----------5*---3*---3-2--|
 E|--4--4-----------4--4----------5*---4*---4-3--|
 B|--4--4-----------5--5----------5*---5*---5-4--|
Gb|--2--2-----------5--5----------3*---5*---5-4--|
Bb|--2--2-----------3--3----------3*---3*---3-2--|
        Back and forth,   side by si----de

CHORUS:

Bb|--3--3-----------2*------------------2*---2-----|
Ab|-----0-----------3*--------------5*--3*---3-----|
 E|-----0-----------4*--------------5*--4*---4-----|
 B|-----0-----------4*--------------5*--4*---4-----|
Gb|-----0-----------2*--------------3*--2*---2-----|
Bb|-----3-----------2*--------------3*--2*---2-----|
         Oh, you're really something           good


Bb|--3--3-----------2*------------------2*--------|
Ab|-----0-----------3*--------------5*--3*--------|
 E|-----0-----------4*--------------5*--4*--------|
 B|-----0-----------4*--------------5*--4*--------|
Gb|-----0-----------2*--------------3*--2*--------|
Bb|-----3-----------2*--------------3*--2*--------|
         Oh, you're really something    true to me

Bb|--3--3-----------2*------------------2*---2-2--|
Ab|-----0-----------3*--------------5*--3*---3-2--|
 E|-----0-----------4*--------------5*--4*---4-3--|
 B|-----0-----------4*--------------5*--4*---4-4--|
Gb|-----0-----------2*--------------3*--2*---2-4--|
Bb|-----3-----------2*--------------3*--2*---2-2--|
         Oh, you're really something


Bb|--3--3----3*---3-2---------3--3----3*---3-2--|
Ab|--3--3----3*---3-2---------3--3----3*---3-2--|
 E|--4--4----4*---4-3---------4--4----4*---4-3--|
 B|--5--5----5*---5-4---------5--5----5*---5-4--|
Gb|--5--5----5*---5-4---------5--5----5*---5-4--|
Bb|--3--3----3*---3-2---------3--3----3*---3-2--|

OUTRO:

Bb|--2--2-----------3--3--------------------------------------------|
Ab|--3--3-----------3--3---------------------7--7--------5--5-------|
 E|--4--4-----------4--4---------------------7--7--------5--5-------|
 B|--4--4-----------5--5---------------------7--7--------5--5-------|
Gb|--2--2-----------5--5---------------------5--5--------3--3-------|
Bb|--2--2-----------3--3---------------------5--5--------3--3-------|
         Baby I do      You never really know    Baby I do I do I do


--2--2------------------3--3--------------------------------------------------------|
--3--3------------------3--3--------------7--7-----------------------------5--5-----|
--4--4------------------4--4--------------7--7-----------------------------5--5-----|
--4--4------------------5--5--------------7--7-----------------------------5--5-----|
--2--2------------------5--5--------------5--5-----------------------------3--3-----|
--2--2------------------3--3--------------5--5-----------------------------3--3-----|  x3
      You never really know      Baby I do    You never really know what's happening


On the third instance, begin strumming the chords without muting.

Bb|--2--2-----------3--3--------------------------------------------|
Ab|--3--3-----------3--3---------------------7--7--------5--5-------|
 E|--4--4-----------4--4---------------------7--7--------5--5-------|
 B|--4--4-----------5--5---------------------7--7--------5--5-------|
Gb|--2--2-----------5--5---------------------5--5--------3--3-------|
Bb|--2--2-----------3--3---------------------5--5--------3--3-------|
         Baby I do      You never really know    Baby I do I do I do


--2--2------------------3--3----------------------------------------------|
--3--3------------------3--3--------------7--7----------5--5--------------|
--4--4------------------4--4--------------7--7----------5--5--------------|
--4--4------------------5--5--------------7--7----------5--5--------------|
--2--2------------------5--5--------------5--5----------3--3--------------|
--2--2------------------3--3--------------5--5----------3--3--------------|
      You never really know      Baby I do     Baby I do     I do love you



<(DESTROYER OF PLANETS)>

"Baby I Do"
Sean Hayes
Flowering Spade (2007)


Lyrics:

We fall down
Get back up
We hold each other, fall in love
Now we're walking
Your steps and mine
Back and forth, side by side

When I met you
Right then, I knew
If I ever had the chance, I would ask you
To spend a little time
Your heart and mine
Back and forth, side by side

Oh you're really something good
Hey you're really something true to me
Oh you're really something

Now you're asking
What I believe in
What's the plan, for our lives
I hear you I hear you
Beside me breathing
I got your back, by your side

When we make love
We make love
When we make love, we make love
Here beside you
Eye to eye with you
Back and forth, side by side

Oh you're really something good
Hey you're really something true to me
Oh you're really something

Baby I do
You never really know
Baby I do I do I do
You never really know
Baby I do
You never really know what's happening

Baby I do
You never really know
Baby I do I do I do
You never really know
Baby I do
You never really know what's happening

Baby I do
You never really know
Baby I do I do I do
You never really know
Baby I do
You never really know what's happening

Baby I do
You never really know
Baby I do I do I do
You never really know
Baby I do
Baby I do I do love you

Enjoy, and remember to keep the music alive.
comments
We did not receive enough feedback on this tab! Please rate:
print report bad tab
1 2 3 4 5
I want to post or [tab]
guest
You may want to rate the tab now too:
select rating
Please do not post tabs as comments. Select "correction" instead!