Oops, an error
Loading. Please wait.

Powerful Stuff Tab

version 2
version 2

Whole song

46,747 views 36 this week
2 commentsread comments
1 2 3 4 5
x 10
add to favorites
launch autoscroll
font size
0
reset
how to read this tab
guitar tuner
Autoscroll
slow
fast
+/-
esc
set tempo
stop
Help us to improve Ultimate-Guitar.com Take our survey!
×
Author
Difficulty
Tuning
intermediate
E A D G B E
Powerful stuff- Sean Hayes

Listen to this song: http://www.seanhayesmusic.com/2010/lyrics-listen/rwr-04.php?
KeepThis=true&TB_iframe=true&height=550&width=700

For a Tab version, check out my profile

I usually only play the bass note followed by the second and third strings
instead of the whole chord.

3 chords are used: 

  E      F#minor   G#minor
e|-0--------2----------4------|
B|-0--------2----------4------|
G|-1--------2----------4------|
D|-2--------4----------6------|
A|-2--------4----------6------|
E|-0--------2----------4------|




p= pull off

intro:
e|---------------------------------------------------|
B|------7---5----------------------------------------|
G|------------6p4------------------------------------|
D|----------------6----------------------------------|
A|---------------------------------------------------|
E|-0-------------------------------------------------|



               E
Oh yes this is powerful stuff

                         F#minor
Got me circling like the moon round the sun

                    G#minor
Acting crazy like a fool all drunk

F#minor              E
 Hmm Hear me this is powerful stuff

No way for you to give this up

It is in your body

 F#minor
It is all in your blood

Tear you down it'll

G#minor
Lift you up

F#minor                          E
  And Keep you turning like it's never enough  


All right now let's turn it up

                   F#minor
Everyday do like a flower does

                  G#minor
Sun rises and she opens up

F#minor           E
Sun rises and she sings


Aww Hit me

       E                   
This is powerful

F#minor                 
Powerful

G#minor                 
Powerful

*Snap Snap*
(Repeat, then 3 snaps not 2)

Intro X2

E                F#minor          G#minor      F#minor      E    
Ahh     Ahh      Ahh     Ahh      Ahh          Ahh         OohOohOoh



                Adicional chords:     C#minor    A(Var)     D  
                                   E|----4-------5----------2---------|
                                   B|----5-------5----------3---------|
                                   G|----6-------6----------2---------|
                                   D|----6-------7----------0---------|
                                   A|----4-------7----------X---------|
                                   E|----X-------5----------X---------|

BRIDGE:
         E        C#minor  
Are you ready?

         A        G#minor
Are you ready?

         E        D          
Are you ready?

C#minor
When a thing is so strong

F#minor
You can' t give it up   Won't give it up

G#minor
Got you    Turnin'   Yearnin'   Burnin'

F#minor
Can't give it up   Won't give up

G#minor
Even when your   Yearnin'   Burnin'   Turnin'

F#minor
Can't give it up   Won't give it up

Intro
Powerful stuff
Suggest correction
comments
print report bad tab
2 comments total.
0 reply
GoldNava 69 Jan 23, 2014 10:01 PM

Great job!

0 reply
Stubbgubben 114 Mar 24, 2014 08:38 AM

I'd say the intro goes something like

|------2---0----------------------------------------|
|-----0------2p0------------------------------------|
|----1-----------1----------------------------------|
|---2-----------------------------------------------|
|--2------------------------------------------------|
|0--------------------------------------------------|

With some muting of strings, and I actually don't think he plays the whole chord. I think it sounds a bit better! Great tab!

guest
You may want to rate the tab now too:
select rating
Wanna post a correction for this tab? Suggest correction