Oops, an error
Loading. Please wait.

Powerful Stuff Tab

version 3
version 3

Whole song

27,881 views 6 this week
4 commentsread comments
1 2 3 4 5
accurate
x 4
add to favorites
launch autoscroll
font size
0
reset
how to read this tab
guitar tuner
Tab Pro tools
  • play this tab
  • loop segment
  • change instrument
  • show fretboard
  • metronome
×
Best way to learn
"Powerful Stuff"
Autoscroll
slow
fast
+/-
esc
set tempo
stop
Contributor
Created by Mrdew *Official*
-------------------------------
TUNING: Drop C# (3 steps down)
-------------------------------
E= C#
B= G#
G= E
D= B
A= F#
E= C#
______

WATCH SEAN HAYES TUTORIAL HERE: http://www.youtube.com/watch?v=i2tGT-RWSP0

                                     E
E---------5-3---------------X--------3-----------5-------3--------------5--|
B-------------5p3-----------X--------3-----------3-------3--------------3--|
G-----------------4---------X--------4-----------4-------4--------------4--|
D---------------------------X--------5-----------5-------5--------------3--|
A---------------------------X----------------------------------------------|
E----3-----------------3----X----3---------------------3-------------------|
                     Aw yes this is powerful stuff      Got me circlin' like

            F#minor                                     G#minor
E------------5-------------7--------5-----------7---------7--------8----|
B------------5-------------5--------5-----------5---------7--------7----|
G------------5-------------5--------5-----------5---------7--------7----|
D------------7-------------7--------7-----------7---------9--------9----|
A-----------------------------------------------------------------------|
E-----3/5-----------------------5--------------------5/7----------------|
   the moon 'round the sun         Actin' crazy like a fool on drunk


     F#minor                       G#minor
E-----5------------5----------------3------------------------------|
B-----5------------5----------------3------------------------------|
G-----5------------5----------------4------------------------------|
D-----7------------7----------------5------------------------------|
A------------------------------------------------------------------|
E--5------------------------3--------------------------------------|
       Hmm  Here me this is powerful stu-ff


E-----3----------------------3-------5-----3-------------5--------5-------|
B-----3----------------------3-------3-----3-------------3--------5-------|
G-----4----------------------4-------4-----4-------------4--------5-------|
D-----5----------------------5-------5-----5-------------5--------7-------|
A-------------------------------------------------------------------------|
E--3---------------------3-------------3---------------------5------------|
        There is no way                   Its in yo body its all in yo blood
             for you to give this up

E--7-----------5-----------7--------7-----------8---------7--------8------|
B--5-----------5-----------5--------7-----------7---------7--------7------|
G--5-----------5-----------5--------7-----------7---------7--------7------|
D--7-----------7-----------7--------9-----------9---------9--------9------|
A-------------------------------------------------------------------------|
E------5-------------------------7--------------------7-------------------|
         It'll tear u down It will lift you up



ill post in a little bit once i get it down 100%

in standerd tuning the chords would be:
E: G
F#minor: A minor
G#minor: B minor
comments
print report bad tab
4 comments total. Showing first comments. show 1 bad comment
+1 reply
creoquesi wrote on December 1 2010, 03:25 pm

when are you gping to post more?

0 reply
creoquesi wrote on December 1 2010, 03:25 pm

oops meant to say *going*

I want to post or [tab]
guest
You may want to rate the tab now too:
select rating
Please do not post tabs as comments. Select "correction" instead!