Oops, an error
Loading. Please wait.

Friendly Fire Tab

version 1
version 1

Whole song

4,059 views 9 this week
no commentswrite comment
1 2 3 4 5
x 3
add to favorites
launch autoscroll
font size
0
reset
how to read this tab
guitar tuner
Autoscroll
slow
fast
+/-
esc
set tempo
stop
Help us to improve Ultimate-Guitar.com Take our survey!
×
Author
Difficulty
intermediate
----------------------------------------------------------------------------------|
----------------------------------------------------------------------------------|
                Friendly Fire (video acoustic guitar version)- Sean Lennon
-------------------------------------------------------------------------------
Tabbed by: C_Vega
Email: Jackherer3@hotmail.com

Tuning: Standard

e|--------0-----------0-----------0-----------0-----------0------------------|
B|----------1-----------1-----------1-----------1-----------1---------0------|
G|------2-----2-----2-----2-----2-----2-----2-----2-----0-----0-----1---1----|
D|----2-----------2-----------2-----------2-----------2-----------0-------0--|
A|--0-----------------------------------------------3-----------2------------|
E|--------------3-----------2-----------1------------------------------------|

e|-------1-----------1-------------------------------------------------------|
B|---------1--------------------------0----9---------------------------------|
G|-----1-----1-----1----------------1------7---------------------------------|
D|---0-----------0----------------0--------0---------------------------------|
A|-2-----------2----------------2--------------------------------------------|
E|----------------------2--1--0----------------------------------------------|

e|---------0------------------0------------------0---------------0-------------|
B|-------------1-----------------1------------------1----------------1---------|
G|------2--------2---------2--------2--------2---------2------2--------2-------|
D|----2-----------------2-----------------2-----------------2------------------|
A|--0---------------------------------------------------------------------3----|
E|------------------3------------------2-----------------1---------------------|
   I      Don't    Want       To       Hear     A--------no-----ther-----------|     Word
e|---------0-------------------------------1-------------------1---------------|
B|-----------1----------------0-----------------1----------------1-------------|
G|---0------------0---------1---1-------1---------1-------1--------1-----------|
D|-2----------------------0-------0---0----------------0-----------------------|
A|-------------------2--------------2---------------2--------------------------|
E|-----------------------------------------------------------------------------|
     From    You     Nooooooooooooooooow   I'd      Ra----ther   bee
e|-------0------------0-------------0-------------------0---------------------|
B|---------0------------0-------------1---------------------1-----------------|
G|-----1-----1------1-----1------2------2-----------2----------2--------------|
D|---0-----------0-------------2----------------2-----------------------------|
A|-2-----------2-------------0------------------------------------------------|
E|-------------------------------------------3--------------------2-----------|
   wrooooooooong            life    is       most------ly---------------------|        what
e|-------0---------------------0-----------------0-------------------------1--|
B|-------------1-------------------1---------------1----------0---------------|
G|----2----------2---------2---------2-------0-------0------1---1-------1-----|
D|--2--------------------2-----------------2--------------0-------0---0-------|
A|--------------------------------------3--------------2------------2---------|
E|------------------1---------------------------------------------------------|
         you       don't      see       a----ny---waaaay----------------------|          
       So
e|-----------------1-----------0-----------0-----------5-------------------5--|
B|-1-----------------1-----------0-----------0-------------5------------------|
G|---1--------1--------1-----1----1------1-----------5-------5----------5-----|
D|----------0--------------0-------0---0-----------7-----------------7--------|
A|-----2-----------------2-----------2---------2/8----------------8-----------|
E|----------------------------------------------------------------------------|
       just   look  aaaawaaaaaaaaaaaay                 but   our  shaadows
e|-----------5-----------------------5-----------3-----------3-----------4---|
B|-5-------------5---------------------5-------5---5-------5---5----------4--|
G|---5-----5-------5-------------5-------5---5-------5---5-------5-----4---4-|
D|-------7---------------------7-----------5-----------5-------------6-------|
A|-----8------------------8----------------------------------------7---------|
E|---------------------------------------------------------------------------|
            just   won't  leave  us    aalone
e|-------4------------5------------------5-------------5------------------5--|
B|---------4-------------5-------------------5-----------5-------------------|
G|-----4-----4-----5-------5----------5--------5-----5-----5---------5-------|
D|---6-----------7------------------5--------------5---------------5---------|
A|-7------------8---------------8----------------8------------8--------------|
E|---------------------------------------------------------------------------|
                     cuz   he  knows    well               he knows  what
e|-----------------4-----------4------0-0-0---0-0-0--0-0-0---0-0-0--0-0-0----|
B|-5-----------------4-----------4----1-1-1---1-1-1--1-1-1---1-1-1--1-1-1----|
G|---5----------4------4-----4--------2-2-2---2-2-2--2-2-2---2-2-2--2-2-2----|
D|------------6------------6----------2-2-2---2-2-2--2-2-2---2-2-2--2-2-2----|
A|--------7--------------7---------7\30-0-0---0-0-0--0-0-0---0-0-0--0-0-0----|
E|------------------------------------0-0-0---0-0-0--3-3-3---3-3-3--2-2-2----|
  you've done                               you     launched the a--ssault
e|-0-0--0----0---0-0---0-0-0----0-0-0--0-0-0--0-0--0-0---0-0---0-0---0-0-0--|
B|-1-1--1----1---1-1---1-1-0----1-1-1--1-1-1--1-1--1-1---1-1---1-1---1-1-1--|
G|-2-2--2----2---2-2---2-2-0----2-2-2--2-2-2--2-2--2-2---2-2---2-2---2-2-2--|
D|-2-2--2----2---2-2---2-2-0----2-2-2--2-2-2--2-2--2-2---2-2---2-2---2-2-2--|
A|-0-0--0----0---0-0---0-0-0----0-0-0--0-0-0--0-0--0-0---0-0---0-0---0-0-0--|
E|-2-2--2----1---1-1---0-0-0----0-0-0--0-0-0--3-3--3-3---3-3---2-2---2-2-2--|
  with your first     ca--nnon-ball    my    sol----------------------------|diers where 
slee-piiing
e|-0-0-0-0-0-0--0-0-0--0-0-0--0-0-0--0-0--0-----0-0-0---0-0--0-----0-0-0-0--|
B|-1-1-1-1-1-0--1-1-1--1-1-1--1-1-1--1-1--1-----1-1-1---1-1--1-----1-1-1-1--|
G|-2-2-2-2-2-0--2-2-2--2-2-2--2-2-2--2-2--2-----2-2-2---2-2--2-----2-2-2-2--|
D|-2-2-2-2-2-0--2-2-2--2-2-2--2-2-2--2-2--2-----2-2-2---2-2--2-----2-2-2-2--|
A|-0-0-0-0-0-0--0-0-0--0-0-0--0-0-0--0-0--0-----0-0-0---0-0--0-----0-0-0-0--|
E|-1-1-1-1-1-0--0-0-0--0-0-0--3-3-3--3-3--3-----2-2-2---2-2--2-----1-1-1-1--|
                       I      know  that  you  thought  it  would  never
e|-0-0---1-1-1-1-1-1--1-1--1-1--1-1--2-2-2-2-2-2-2-2-2-2-2-0-1-1-1-1-1-1-1----|
B|-1-1---3-3-3-3-3-3--3-3--3-3--3-3--1-1-1-1-1-1-1-1-1-1-1-0-1-1-1-1-1-1-1----|
G|-2-2---2-2-2-2-2-2--2-2--2-2--2-2--2-2-2-2-2-2-2-2-2-2-2-0-2-2-2-2-2-2-2----|
D|-2-2---0-0-0-0-0-0--0-0--0-0--0-0--2-2-2-2-2-2-2-2-2-2-2-0-0-0-0-0-0-0-0----|
A|-0-0---0-0-0-0-0-0--0-0--0-0--0-0--0-0-0-0-0-0-0-0-0-0-0-0-0-0-0-0-0-0-0----|
E|-1-1---0-0-0-0-0-0--0-0--0-0--0-0--0-0-0-0-0-0-0-0-0-0-0-0-0-0-0-0-0-0-0----|
   come  down         down to  the  wire                                 it's
e|-----------0-------------0-----------0-----------0-----------0--------------|
B|-----------1---------------1-----------1-----------1-----------1------------|
G|-----------2-----------2-----2-----2-----2-----2-----2-----2-----2-----0----|
D|-----------2---------2-----------2-----------2-----------2-----------2------|
A|-----------0-------0-----------------------------------------------3--------|
E|-----------0-------------------3-----------2-----------1--------------------|
 friendly  fire
e|-0-----------------------1-----------0--------------------------------------|
B|---1---------0-------------1-----------0------------------------------------|
G|-----0-----1---1-------1-----1-----1-----1----------------------------------|
D|---------0-------0---0-----------0------------------------------------------|
A|-------2-----------2-----------2--------------------------------------------|
E|----------------------------------------------------------------------------|

That is basically all the tab.  The arpeggio progression repeats to the beginning
part with the next lyric (in your room...), but when you arrive at (your shadow) that is when
slide to the 8th fret on the 5th string and then continues on normally.

Everything is pretty much straight forward if unsure of anything just listen to the cd
figure out the strumming part for the chorus and the picking part.  Remember, this is the
version or one you would play with  only one acoustic guitar (NOT CD VERSION!) Hope you 
it.  SEAN LENNON ROCKS!!

"Friendly Fire" Lyrics

I don't want to hear
Another word from you now
I'd rather be wrong
Life is mostly what
You don't see anyway
So just look away
But our shadows
Never leave us alone
Down the bad roads
They will follow us
Faithfully home

You launched the assualt
With the first cannonball
My soldiers were sleeping
I know that you thought
It would never come down,
Down to the wire
It's friendly fire

In your room filled with the things
That you've never done
Does anyone really care
Your shadow
Just wont leave you alone
'cos he knows well
He knows what you've done

You launched the assualt
With the first cannonball
My soldiers were sleeping
I know that you thought
It could never come down,
Down to the wire
It's friendly fire

Waves don't wonder
When you're drowning
Under the sea
So don't look for me
Find her keep her lose her
Deserts you in the end
You were my friend
Like your shadow
No one knows you as well
As I do

You launched the assualt
With the first cannonball
My soldiers were sleeping
I know that you thought
It would never come down,
Down to the ground
'cos I was so tired
Then I'll get down
Down to the wire
It's friendly fire
Suggest correction
Give kudos to tab author, rate the tab!
1 2 3 4 5
comments
print report bad tab
guest
You may want to rate the tab now too:
select rating
Wanna post a correction for this tab? Suggest correction