Oops, an error
Loading. Please wait.

Wait For Me Tab

10,627 views 6 this week
1 commentread comment
1 2 3 4 5
x 5
add to favorites
launch autoscroll
font size
0
reset
how to read this tab
guitar tuner
Autoscroll
slow
fast
+/-
esc
set tempo
stop
Help us to improve Ultimate-Guitar.com Take our survey!
×
Author
Difficulty
novice
Sean Lennon Wait For me

Em               022000
B7Add11          201200
G                320003
C                x32010
B7               x21202
Am               x02210
D                xx0232
Em7              022030
Adim             xx1212

*Intro*

Em


*Couplet*

Em / B7add11 / Em / B7add11 / G / C / G / B7 (x2)


*Refrain*

Am / D / G / Em7 / Am / D / Adim


*Couplet*

Em / B7add11 / Em / B7add11 / G / C / G / B7 (x2)


*Refrain*

Am / D / G / Em7 / Am / D / Adim



*Solo*

Em / B7add11 / Em / B7add11 / G / C / G / B7 (x2)

E||----------------------------------------------------3----2---------------|
B||--5-----3-------------3----5-------------3--5-------------------------3--|
G||-----4-----5--4----4----------4----4--5--------4--------------4----4-----|
D||-------------------------------------------------------------------------|
A||-------------------------------------------------------------------------|
E||-------------------------------------------------------------------------|


       
--------------------------------------3--5--6--7----8--7--6b----||
-------------3--5---------------3--5----------------------------||
--5--4----4--------4------4--5----------------------------------||
----------------------------------------------------------------||
----------------------------------------------------------------||
----------------------------------------------------------------||



*Refrain*

Am / D / G / Em7 / Am / D / Adim 






Pont
     Em          B7add11        G         Am
E||--------------------------|--------------------------|
B||--------0-----------1-----|--------3-----------1-----|
G||-----0-----------2--------|-----0-----------2--------|
D||--------------------------|--------------------------|
A||--------------------------|--------------0--------0--|
E||--0--------0--2--------2--|--3--------3--------------|


   G          Am            B7
--------------------------|--------2-----------------|
--------3-----------1-----|--------------------------|
-----0-----------2--------|-----2-----2--------------|
--------------------------|-----------1--------------|
--------------0--------0--|--2-----------2--0--------|
--3--------3--------------|--------------------3--2--|


  Em          Baadd11        G           Am
--------------------------|--------------------------|
--------0-----------1-----|--------3-----------1-----|
-----0-----------2--------|-----0-----------2--------|
--------------------------|--------------------------|
--------------------------|--------------0--------0--|
--0--------0--2--------2--|--3--------3--------------|


 G           Am              B7
--------------------------|--2----------------||
--------3-----------1-----|--0----------------||
-----0-----------2--------|--2----------------||
--------------------------|--1----------------||
--------------0--------0--|--2----------------||
--3--------3--------------|-------------------||


*Refrain*

Am / D / G / Em7 / Am / D / Adim
 
*Fin*

Em

Suggest correction
comments
print report bad tab
1 comment total.
0 reply
Mistermark 346 Apr 19, 2008 07:48 AM

Great work, sounds good to me:)

guest
You may want to rate the tab now too:
select rating
Wanna post a correction for this tab? Suggest correction