Oops, an error
Loading. Please wait.

Hellogoodbye intro tab

947 views 1 this week
1 commentread comment
1 2 3 4 5
x 4
add to favorites
×
Save as Personal and add changes to this tab that will be seen only by you. Learn more ›
×
You can save this tab as Personal to edit and correct it or add notes. All changes will be seen only by you. Learn more »
launch autoscroll
font size
0
reset
how to read this tab
guitar tuner
edit
Autoscroll
slow
fast
+/-
esc
set tempo
stop
Author
Difficulty
|------2---------------------------------------|
|---------3---------0--------------------------|
|---2-------------0---------2-----------2h4--2-|
|0-------------2---------0-----4-----2---------|
|---------------------------------0------------|
|-----------0----------3-----------------------|
Repeat once

http://www.seanwatkins.com 

            
            
Suggest correction
Creating personal tab
Creating personal tab
You can edit any tab online and save it as your Personal.

You can edit, replace or remove any tab part or add personal notes – all changes will be seen only by you.

Personal tabs can be accessed anytime from any device, even offline.
Learn more »
comments
print report bad tab
1 comment total.
+1 reply
wazimoto1229 10 Jan 29, 2012 06:36 PM

Very close, but on the 0-2-0-0 part you need to play it in a slightly different order. Instead play it like so: play from low E, to D, skip up to B, and then back down to G.

Like this
|------2---------------------------------------|
|---------3-------0----------------------------|
|---2---------------0-------2-----------2h4--2-|
|0-------------2---------0-----4-----2---------|
|---------------------------------0------------|
|-----------0----------3-----------------------|

Otherwise perfect tab for the intro =)

guest
You may want to rate the tab now too:
select rating
Wanna post a correction for this tab? Suggest correction