Oops, an error
Loading. Please wait.

Isi Atau Kulit tab

by Search
1,165 views 6 this week
no commentswrite comment
1 2 3 4 5
3 more votes to show rating
add to favorites
×
Save as Personal and add changes to this tab that will be seen only by you. Learn more ›
×
You can save this tab as Personal to edit and correct it or add notes. All changes will be seen only by you. Learn more »
launch autoscroll
font size
0
reset
how to read this tab
guitar tuner
edit
Autoscroll
slow
fast
+/-
esc
set tempo
stop
Author
Difficulty
Isi atau kulit - SEARCH
Tabs by - rizalwahap


[Intro riff guitar 1]

e|---------------------------------------------------------------------------|
B|---------------------------------------------------------------------------|
G|----------------------------------------------------------------------4----|
D|--------4--4-5-----------4--5-4--------------4--4-5------------4--4-5------|
A|--2--2-------------2--2---------5------2--2--------------2--2--------------|
E|--0--0-------------0--0----------------0--0--------------0--0--------------|


[Intro riff guitar 2]

e|---------------------------------------------------------------------------|
B|----------------------------------------------------------------------12---|
G|-----11---11-12------11---11/12-11---------11---11-12------11---11-12------|
D|--/9----9---------/9----9----------12---/9----9---------/9----9------------|
A|---------------------------------------------------------------------------|
E|---------------------------------------------------------------------------|


[Verse]

Em
Yang mana kau pilih

Isi atau kulit

Am                     Em 
Kertas bungkusan indah coraknya
e|---------------------------------------------------------------------------|
B|---------------------------------------------------------------------------|
G|---------------------------------------------------------------------------| 
D|--------4--4-5-----------4--5-4--------------------------------------------|
A|--2--2-------------2--2---------5------------------------------------------|
E|--0--0-------------0--0----------------------------------------------------|

Am
Membungkus benda
    Em 
Tak kira nilainya
e|---------------------------------------------------------------------------|
B|---------------------------------------------------------------------------|
G|----------------------------------------------------------------------4----|
D|--------4--4-5-----------4--5-4--------------4--4-5------------4--4-5------|
A|--2--2-------------2--2---------5------2--2--------------2--2--------------|
E|--0--0-------------0--0----------------0--0--------------0--0--------------|

Em 
Yang mana berharga
e|----------------------------|
B|----------------------------|
G|--9-11-9-12-11h12p11-9-11---|     (Repeat thru verse)
D|----------------------------|
A|----------------------------|
E|----------------------------|

Isi atau kulit
Am                  Em        
Hiasan cantik permainan mata
e|---------------------------------------------------------------------------|
B|---------------------------------------------------------------------------|
G|---------------------------------------------------------------------------|
D|--------4--4-5-----------4--5-4--------------------------------------------|
A|--2--2-------------2--2---------5------------------------------------------|
E|--0--0-------------0--0----------------------------------------------------|

Am                   Em        
Budi yang baik santapan jiwa
e|---------------------------------------------------------------------------|
B|---------------------------------------------------------------------------|
G|---------------------------------------------------------------------------|
D|--------4--4-5-----------4--5-4--------------------------------------------|
A|--2--2-------------2--2---------5------------------------------------------|
E|--0--0-------------0--0----------------------------------------------------|


    Dm           C        
Ada orang lihat kulit
e|-------------------------------------|----------------------------------|
B|-------------------------------------|----------------------------------|
G|----------7h9-7~--------------7h9-7~-|----------5h7-5~----/5-4-0--------|
D|--7---7h9-------------7---7h9--------|--5---5h7--------------------5-4-0|
A|--5-------------------5--------------|--3-------------------------------|
E|-------------------------------------|--3-------------------------------|

    Dm           C       
Ada orang lihat isinya
e|-------------------------------------|----------------------------------|
B|-------------------------------------|----------------------------------|
G|----------7h9-7~--------------7h9-7~-|----------5h7-5~----/5-4-0--------|
D|--7---7h9-------------7---7h9--------|--5---5h7--------------------5-4-0|
A|--5-------------------5--------------|--3-------------------------------|
E|-------------------------------------|--3-------------------------------|

Em        Am
Kulit dan isi
          Em
Memberi erti
          Am         B
Jikalau tahu menilainya


************************************
| h   Hammer-on
| p   Pull-off
| /   Slide up
| ~   Vibrato
************************************

            
            
Suggest correction
Creating personal tab
Creating personal tab
You can edit any tab online and save it as your Personal.

You can edit, replace or remove any tab part or add personal notes – all changes will be seen only by you.

Personal tabs can be accessed anytime from any device, even offline.
Learn more »
Give kudos to tab author, rate the tab!
1 2 3 4 5
comments
print report bad tab
guest
You may want to rate the tab now too:
select rating
Wanna post a correction for this tab? Suggest correction