Oops, an error
Loading. Please wait.

Son Of A Gun bass

812 views 1 this week
no commentswrite comment
1 2 3 4 5
3 more votes to show rating
add to favorites
×
Save as Personal and add changes to this tab that will be seen only by you. Learn more ›
×
You can save this tab as Personal to edit and correct it or add notes. All changes will be seen only by you. Learn more »
launch autoscroll
font size
0
reset
guitar tuner
edit
Autoscroll
slow
fast
+/-
esc
set tempo
stop
-------------------------------------------------------------------------------
			     Son Of A Gun - Search The City
-------------------------------------------------------------------------------

Tabbed By : This Kid

Tuning:Drop C# (C# G# C# F#)


Awesome band/song. Too bad they broke up -sigh-

Intro

F#|-----------------|-----------------|-----------------|-----------------|
C#|-----------------|-----------------|-----------------|-----------------|
G#|-----------------|-0---0-0-0-0-0-0-|-----------------|-----------------|
C#|-0---0-0-0-0-0-0-|-----------------|-2---2-2-2-2-2-2-|-4---4-4-4-4-4-4-|
    1 + 2 + 3 + 4 +   1 + 2 + 3 + 4 +   1 + 2 + 3 + 4 +   1 + 2 + 3 + 4 +

F#|-----------------|-----------------|-----------------|-----------------|
C#|-----------------|-----------------|-----------------|-----------------|
G#|-----------------|-0---0-0-0-0-0-0-|-0---------------|-----------------|
C#|-0---0-0-0-0-0-0-|-----------------|---2-2-2-2-2-2-2-|-2-2-2-2-2-2-2-2-|
    1 + 2 + 3 + 4 +   1 + 2 + 3 + 4 +   1 + 2 + 3 + 4 +   1 + 2 + 3 + 4 +

F#|-----------------|
C#|-----------------|
G#|-----------------|
C#|-0---0---00000---|
    1 + 2 + 3 + 4 +  


 Verse 1

F#|-----------------|-----------------|-----------------|-----------------|
C#|-----------------|-----------------|-----------------|-----------------|
G#|-----------------|-----------------|-0---0-0---------|-----------------|
C#|-4---4-4---------|-2---2-2---------|-----------------|-0---0-0---------|
    1 + 2 + 3 + 4 +   1 + 2 + 3 + 4 +   1 + 2 + 3 + 4 +   1 + 2 + 3 + 4 +

F#|-----------------|-----------------|-----------------|-----------------|
C#|-----------------|-----------------|-----------------|-----------------|
G#|-----------------|-----------------|-0---0-0--2--4---|-----------------|
C#|-4---4-4---------|-2---2-2--4--6---|-----------------|-0---0-0-----0-2-|
    1 + 2 + 3 + 4 +   1 + 2 + 3 + 4 +   1 + 2 + 3 + 4 +   1 + 2 + 3 + 4 +


 Pre-Chorus

F#|-----------------|-----------------|-----------------|-----------------|
C#|-----------------|-----------------|-----------------|-----------------|
G#|-----------------|-----------------|-----------------|-----------------|
C#|---2-2-2-2-2-2-2-|-2-2-2-2-2-2-2-2-|-4-4-4-4-4-4-4-4-|-0-0-0-0-0-0-0-2-|
    1 + 2 + 3 + 4 +   1 + 2 + 3 + 4 +   1 + 2 + 3 + 4 +   1 + 2 + 3 + 4 +

F#|-----------------|-----------------|-----------------|-----------------|
C#|-----------------|-----------------|-----------------|-----------------|
G#|-----------------|-4---2---0-------|-----------------|-----------------|
C#|---2-2-2-2-2-2-2-|-------------6---|-4-------0-------|-2---2-2-2-2-2-2-|
    1 + 2 + 3 + 4 +   1 + 2 + 3 + 4 +   1 + 2 + 3 + 4 +   1 + 2 + 3 + 4 +


 Chorus

F#|-----------------|-----------------|-----------------|-----------------|
C#|-----------------|-----------------|-----------------|-----------------|
G#|-----------------|-0---0-0-0-0-0-0-|-----------------|-----------------|
C#|-0---0-0-0-0-0-0-|-----------------|-2---2-2-2-2-2-2-|-4---4-4-4-4-4-4-|
    1 + 2 + 3 + 4 +   1 + 2 + 3 + 4 +   1 + 2 + 3 + 4 +   1 + 2 + 3 + 4 +

F#|-----------------|-----------------|-----------------|-----------------|
C#|-----------------|-----------------|-----------------|-----------------|
G#|-----------------|-0---0-0-0-0-0-0-|-0---------------|-----------------| x 2
C#|-0---0-0-0-0-0-0-|-----------------|---2-2-2-2-2-2-2-|-2-2-2-2-2-2-2-2-|
    1 + 2 + 3 + 4 +   1 + 2 + 3 + 4 +   1 + 2 + 3 + 4 +   1 + 2 + 3 + 4 +


 Verse 2 (Part 1)

F#|-----------------|-----------------|-----------------|-----------------|
C#|-----------------|-----------------|-----------------|-----------------|
G#|-----------------|-----------------|-0---0---0---2-0-|-----------------|
C#|-4--4------------|-2h4p2h4---2-4-6-|-----------------|-2---2-----2h4p2-|
    1 + 2 + 3 + 4 +   1 + 2 + 3 + 4 +   1 + 2 + 3 + 4 +   1 + 2 + 3 + 4 +

F#|-----------------|-----------------|-----------------|-----------------|
C#|-----------------|-----------------|-----------------|-----------------|
G#|-----------------|-----------------|-0---0---0---2---|-----------------|
C#|-4--4------------|-2h4p2h4---2-4-6-|-----------------|-2---2---2---2---|
    1 + 2 + 3 + 4 +   1 + 2 + 3 + 4 +   1 + 2 + 3 + 4 +   1 + 2 + 3 + 4 +


 Verse 2 (Part 2)

F#|-----------------|-----------------|-----2-------2---|-----2-----2---2-|
C#|-----2-------2---|-----2-------2---|-0-0---0-0-0---0-|-0-0---0-0---0---|
G#|-0-0---0-0-0---0-|-0-0---0-0-0---0-|-----------------|-----------------|
C#|-----------------|-----------------|-----------------|-----------------|
    1 + 2 + 3 + 4 +   1 + 2 + 3 + 4 +   1 + 2 + 3 + 4 +   1 + 2 + 3 + 4 +

F#|-----4-------4---|-----6-------6---|-----2-------2---|-----6-6-4-4-2-2-|
C#|-2-2---2-2-2---2-|-4-4---4-4-4---4-|-0-0---0-0-0---0-|-0-0-------------|
G#|-----------------|-----------------|-----------------|-----------------|
C#|-----------------|-----------------|-----------------|-----------------|
    1 + 2 + 3 + 4 +   1 + 2 + 3 + 4 +   1 + 2 + 3 + 4 +   1 + 2 + 3 + 4 +


 Pre-Chorus 2

F#|-----------------|-----------------|-----------------|-----------------|
C#|-----------------|-----------------|-----------------|-----------------|
G#|-----------------|-----------------|-----------------|-----------------|
C#|-2-2-2-2-2-2-2-2-|---4-4-4-4-4-4-4-|---0-0-0-0-0-0-0-|---0-0-0-0-0-0-0-|
    1 + 2 + 3 + 4 +   1 + 2 + 3 + 4 +   1 + 2 + 3 + 4 +   1 + 2 + 3 + 4 +

F#|-----------------|-----------------|-----------------|-----------------|
C#|-----------------|-----------------|-----------------|-----------------|
G#|-----------------|-----------------|-----------------|-----------------|
C#|---2-2-2-2-2-2-2-|---4-4-4-4-4-4-4-|-4-4-4-0-0-0-2-2-|-2-2-2-2-2-2-2-2-|
    1 + 2 + 3 + 4 +   1 + 2 + 3 + 4 +   1 + 2 + 3 + 4 +   1 + 2 + 3 + 4 +


 Chorus

F#|-----------------|-----------------|-----------------|-----------------|
C#|-----------------|-----------------|-----------------|-----------------|
G#|-----------------|-0---0-0-0-0-0-0-|-----------------|-----------------|
C#|-0---0-0-0-0-0-0-|-----------------|-2---2-2-2-2-2-2-|-4---4-4-4-4-4-4-|
    1 + 2 + 3 + 4 +   1 + 2 + 3 + 4 +   1 + 2 + 3 + 4 +   1 + 2 + 3 + 4 +

F#|-----------------|-----------------|-----------------|-----------------|
C#|-----------------|-----------------|-----------------|-----------------|
G#|-----------------|-0---0-0-0-0-0-0-|-0---------------|-----------------|
C#|-0---0-0-0-0-0-0-|-----------------|---2-2-2-2-2-2-2-|-2-2-2-2-2-2-2-2-|
    1 + 2 + 3 + 4 +   1 + 2 + 3 + 4 +   1 + 2 + 3 + 4 +   1 + 2 + 3 + 4 +

F#|-----------------|-----------------|-----------------|-----------------|
C#|-----------------|-----------------|-----------------|-----------------|
G#|-----------------|-0---0-0-0-0-0-0-|-----------------|-----------------|
C#|-0---0-0-0-0-0-0-|-----------------|-2---2-2-2-2-2-2-|-4---4-4-4-4-4-4-|
    1 + 2 + 3 + 4 +   1 + 2 + 3 + 4 +   1 + 2 + 3 + 4 +   1 + 2 + 3 + 4 +

F#|-----------------|-----------------|-----------------|-------------------------|
C#|-----------------|-----------------|-----------------|-------------------------|
G#|-----------------|-0---0-0-0-0-0-0-|-0---------------|-------------------------|
C#|-0---0-0-0-0-0-0-|-----------------|---2-2-2-2-2-2-2-|-14-14-14-14-14-14-14-14-|
    1 + 2 + 3 + 4 +   1 + 2 + 3 + 4 +   1 + 2 + 3 + 4 +   1  +  2  +  3  +  4  +
 

 Bridge/Breakdown

F#|-----------------|-----------------|-----------------|-----------------|
C#|-----------------|-----------------|-----------------|-----------------|
G#|-----------------|-----------------|-----------------|-----------------|
C#|-12/-------------|-----------------|-----------------|-----------------|
    1 + 2 + 3 + 4 +   1 + 2 + 3 + 4 +   1 + 2 + 3 + 4 +   1 + 2 + 3 + 4 +

F#|-----------------|-----------------|-----------------|-----------------|
C#|-----------------|-----------------|-----------------|-----------------|
G#|-----------------|-----------------|-----------------|-----------------|
C#|-0---0---00000---|-----0---00000---|-0---0---00000---|-----2-222224----|
    1 + 2 + 3 + 4 +   1 + 2 + 3 + 4 +   1 + 2 + 3 + 4 +   1 + 2 + 3 + 4 +

F#|-----------------|-----------------|-----------------|-----------------|
C#|-----------------|-----------------|-----------------|-----------------|
G#|-----------------|-----------------|-----------------|-----------------|
C#|-0---0---00000---|-----0---00000---|-0---0---00000---|-----2-2-2-2-4---|
    1 + 2 + 3 + 4 +   1 + 2 + 3 + 4 +   1 + 2 + 3 + 4 +   1 + 2 + 3 + 4 +


 Chorus

   Let Ring
F#|-----------------|-----------------|-----------------|-----------------|
C#|-----------------|-----------------|-----------------|-----------------|
G#|-----------------|-0---------------|-----------------|-----------------|
C#|-0---------------|-----------------|-2---------------|-4---------------|
    1 + 2 + 3 + 4 +   1 + 2 + 3 + 4 +   1 + 2 + 3 + 4 +   1 + 2 + 3 + 4 +

F#|-----------------|-----------------|-----------------|-----------------|
C#|-----------------|-----------------|-----------------|-----------------|
G#|-----------------|-0---------------|-----------------|-----------------|
C#|-0---------------|-----------------|---2-------------|-----------------| 
    1 + 2 + 3 + 4 +   1 + 2 + 3 + 4 +   1 + 2 + 3 + 4 +   1 + 2 + 3 + 4 +



F#|-----------------|-----------------|-----------------|-----------------|
C#|-----------------|-----------------|-----------------|-----------------|
G#|-----------------|-0---0-0-0-0-0-0-|-----------------|-----------------|
C#|-0---0-0-0-0-0-0-|-----------------|-2---2-2-2-2-2-2-|-4---4-4-4-4-4-4-|
    1 + 2 + 3 + 4 +   1 + 2 + 3 + 4 +   1 + 2 + 3 + 4 +   1 + 2 + 3 + 4 +

F#|-----------------|-----------------|-----------------|-----------------|
C#|-----------------|-----------------|-----------------|-----------------|
G#|-----------------|-0---0-0-0-0-0-0-|-0---------------|-----------------|
C#|-0---0-0-0-0-0-0-|-----------------|---2-2-2-2-2-2-2-|-2-2-2-2-2-2-2-2-|
    1 + 2 + 3 + 4 +   1 + 2 + 3 + 4 +   1 + 2 + 3 + 4 +   1 + 2 + 3 + 4 +



F#|-----------------|-----------------|-----------------|-----------------|
C#|-----------------|-----------------|-----------------|-----------------|
G#|-----------------|-0---0-0-0-0-2-2-|-----------------|-----------------|
C#|-0---0-0-0-0-2-4-|-----------------|-2---2-2-2-2-2-2-|-4---4-4-4-4-4-4-|
    1 + 2 + 3 + 4 +   1 + 2 + 3 + 4 +   1 + 2 + 3 + 4 +   1 + 2 + 3 + 4 +

F#|-----------------|-----------------|-----------------|-----------------|
C#|-----------------|-----------------|-----------------|-----------------|
G#|-----------------|-0---0-0-0-4-4-2-|-2---------------|-----------------|
C#|-0---0-0-0-0-2-4-|-----------------|---2-2-2-2-2-2-2-|-2-2-2-2-2-2-2-2-|
    1 + 2 + 3 + 4 +   1 + 2 + 3 + 4 +   1 + 2 + 3 + 4 +   1 + 2 + 3 + 4 +



F#|-----------------|-----------------|-----------------|-----------------|
C#|-----------------|-----------------|-----------------|-----------------|
G#|-----------------|-0---0-0-0-0-2-2-|-----------------|-----------0-0-2-|
C#|-0---0-0-0-0-2-4-|-----------------|-2---2-2-2-2-2-2-|-4---4-6-6-------|
    1 + 2 + 3 + 4 +   1 + 2 + 3 + 4 +   1 + 2 + 3 + 4 +   1 + 2 + 3 + 4 +

F#|-----------------|-----------------|-----------------|-----------------|
C#|-----------------|-----------------|-----------------|-----------------|
G#|-----------------|-0-0-0-0-0-0-0-2-|-2---------------|-----2-----------|
C#|-0-0-0-0-0-0-0-0-|-----------------|---2-2-2-2-2-2-2-|-2-2---2-2-2-2-2-|
    1 + 2 + 3 + 4 +   1 + 2 + 3 + 4 +   1 + 2 + 3 + 4 +   1 + 2 + 3 + 4 +


 Outro


F#|-----------------|-----------------|-----------------|-----------------|
C#|-----------------|-----------------|-----------------|-----------------|
G#|-----------------|-----------------|-----------------|-----------------|
C#|-0---0---00000---|-----0---00000---|-0---0---00000---|-----2-222224----|
    1 + 2 + 3 + 4 +   1 + 2 + 3 + 4 +   1 + 2 + 3 + 4 +   1 + 2 + 3 + 4 +
F#|-----------------|
C#|-----------------|
G#|-----------------|
C#|-0---0---00000---|
    1 + 2 + 3 + 4 +


| /  slide up
| \  slide down
| h  hammer-on
| p  pull-off
| ~  vibrato
| +  harmonic
| x  Mute note
===============================================================================

            
            
Suggest correction
Creating personal tab
Creating personal tab
You can edit any tab online and save it as your Personal.

You can edit, replace or remove any tab part or add personal notes – all changes will be seen only by you.

Personal tabs can be accessed anytime from any device, even offline.
Learn more »
Give kudos to tab author, rate the tab!
1 2 3 4 5
comments
print report bad tab
guest
You may want to rate the tab now too:
select rating
Wanna post a correction for this tab? Suggest correction