Oops, an error
Loading. Please wait.

Son Of A Gun tab

6,769 views 3 this week
no commentswrite comment
1 2 3 4 5
x 9
add to favorites
×
Save as Personal and add changes to this tab that will be seen only by you. Learn more ›
×
You can save this tab as Personal to edit and correct it or add notes. All changes will be seen only by you. Learn more »
launch autoscroll
font size
0
reset
how to read this tab
guitar tuner
edit
Autoscroll
slow
fast
+/-
esc
set tempo
stop
	Son Of A Gun
	
Song: Son Of A Gun
Artist: Search The City
Album: A Fire So Big The Heavens Can See It
Year: 2008
Genre: Alternative
Tuning: Drop Db (or Drop C# if you prefer)
Info:
 . | Palm Mute
 / | Slide off note
 ^ | Bend Up
 ~ | Bend Up then Down


	Intro:

eb|-------------12-9--------------------------------|
Bb|--------91010----109-----------91010-------------|
Gb|-----911---------------------99------------------|
Db|--------------------119-------------11-1112119---|
Ab|-9-12------------------129-12-----------------12-|
Db|-------------------------------------------------|
  |
eb|-------------12-9-----------------------------|
Bb|--------91010----109-----------91010----------|
Gb|-----911---------------------99---------------|
Db|--------------------119-------------9-9119----|
Ab|-9-12------------------129-12-------------12--|
Db|----------------------------------------------|
  |
eb|----------------------|
Bb|----------------------|
Gb|----------------------|
Db|-7--7-77777-----------|
Ab|-5--5-55555-----------|
Db|-0--0-00000-----------|
       . ....
	

	Verse:
	
eb|--------------------------------------|
Bb|------5--------52---------------------|
Gb|-6--6--6--4--4---4----4-46-----6764---|
Db|-4--------2--------7---------------7--|
Ab|-------------------5--------0---------|
Db|----------------------------0---------|
  |
eb|--------------------------------------|
Bb|------5--------52---------------------|
Gb|-6--6--6--4--4---4----4-46-----6764---|
Db|-4--------2--------7---------------7--|
Ab|-------------------5--------0---------|
Db|----------------------------0---------|
  |
eb|-----------------------------------|
Bb|-----------------------------------|
Gb|-4-444444444444446666666666666764--|
Db|-2-22222222222222444444444444----7-|
Ab|-----------------------------------|
Db|-----------------------------------|
  |   ..........................        
  |
eb|---------------------------------|
Bb|---------------------------------|
Gb|-4-4444444444444411--7--9----999-|
Db|-2-2222222222222211--7--9-999999-|
Ab|-----------------9---5--7-777777-|
Db|---------------------------------|
      ..............

	  
	Chorus:
	
eb|-------------12-9--------------------------------|
Bb|--------91010----109-----------91010-------------|
Gb|-----911---------------------99------------------|
Db|--------------------119-------------11-1112119---|
Ab|-9-12------------------129-12-----------------12-|
Db|-------------------------------------------------|
  |
eb|-------------12-9-----------------------------|
Bb|--------91010----109-----------91010----------|
Gb|-----911---------------------99---------------|
Db|--------------------119-------------9-9119----|
Ab|-9-12------------------129-12-------------12--|
Db|----------------------------------------------|
  |
eb|-------------12-9--------------------------------|
Bb|--------91010----109-----------91010-------------|
Gb|-----911---------------------99------------------|
Db|--------------------119-------------11-1112119---|
Ab|-9-12------------------129-12-----------------12-|
Db|-------------------------------------------------|
  |
eb|-------------12-9-----------------------------|
Bb|--------91010----109-----------91010----------|
Gb|-----911---------------------99---------------|
Db|--------------------119-------------9-9119----|
Ab|-9-12------------------129-12-------------12--|
Db|----------------------------------------------|


	Verse:
	
eb|------------------------------------------------------------------|
Bb|------------------------------------------------------------------|
Gb|------------------------------------------------------------------|
Db|-1111111111111111111111111111111114141414141414141414141414141414-|
Ab|-9-9-9-9-9-9-9-9-9-9-9-9-9-9-9-9-12121212121212121212121212121212-|
Db|------------------------------------------------------------------|
  | . . . . . . . . . . . . . . . . . . . . . . . . . . . . . . . .
  |
eb|-----------------------------------------------------------|
Bb|-----------------------------------------------------------|
Gb|-----------------------------------------------------99914-|
Db|-1111111111111111111111111111111114141414141414149999999x--|
Ab|-9-9-9-9-9-9-9-9-9-9-9-9-9-9-9-9-1212121212121212777777712-|
Db|-----------------------------------------------------------|
  | . . . . . . . . . . . . . . . . . . . . . . . . .....
  |
eb|----------------------------------------------------------------|
Bb|----------------------------------------------------------------|
Gb|-----9---9---97-6----7-6-------------9---9------99977776666-----|
Db|---7-x---x-------9977---9977-791179117-797-79119-----------9999-|
Ab|-79-77-777-79---------------------------------------------------|
Db|----------------------------------------------------------------|
  |
eb|-------------------------------------------------------|
Bb|-------------------------------------------------------|
Gb|----9-------9-x9-66-6-68-88----9-------11--7--9----999-|
Db|-797--767---7-x6-44-4-46-66-797-767----11--7--9-999999-|
Ab|---------9-------------------------9---9---5--7-777777-|
Db|-------------------------------------------------------|


	Chorus:
	
eb|-------------12-9--------------------------------|
Bb|--------91010----109-----------91010-------------|
Gb|-----911---------------------99------------------|
Db|--------------------119-------------11-1112119---|
Ab|-9-12------------------129-12-----------------12-|
Db|-------------------------------------------------|
  |
eb|-------------12-9-----------------------------|
Bb|--------91010----109-----------91010----------|
Gb|-----911---------------------99---------------|
Db|--------------------119-------------9-9119----|
Ab|-9-12------------------129-12-------------12--|
Db|----------------------------------------------|
  |
eb|-------------12-9--------------------------------|
Bb|--------91010----109-----------91010-------------|
Gb|-----911---------------------99------------------|
Db|--------------------119-------------11-1112119---|
Ab|-9-12------------------129-12-----------------12-|
Db|-------------------------------------------------|
  |
eb|-------------12-9-----------------------------|
Bb|--------91010----109-----------91010----------|
Gb|-----911---------------------99---------------|
Db|--------------------119-------------9-9119----|
Ab|-9-12------------------129-12-------------12--|
Db|----------------------------------------------|


	Bridge:
	
> Here's both guitar parts for this part, not sure how accurate the lead part is but it works.

Lead
eb|-------------------------------------------------|
Bb|-------------------------------------------------|
Gb|-------------------------------------------------|
Db|-7-----////--------------------------------------|
Ab|-5-----////--------------------------------------|
Db|-------------------------------------------------|
  |
Rythm
eb|-------------------------------------------------|
Bb|-------------------------------------------------|
Gb|-------------------------------------------------|
Db|-0----------------------0------------------------|
Ab|-0--0-00000---0-00000---0--0-00000---2-222224----|
Db|-0--0-00000---0-00000---0--0-00000---2-222224----|
  |    . .....   . .....      . .....   . .....


Lead
eb|----------12----------9109---------12------------9109-|
Bb|-10-----10--1210----10----10-----10--12-10-----10-----|
Gb|-----911--------9-11----------911-----------911-------|
Db|------------------------------------------------------|
Ab|------------------------------------------------------|
Db|------------------------------------------------------|
  |
Rythm
eb|-------------------------------------------------|
Bb|-------------------------------------------------|
Gb|-------------------------------------------------|
Db|-0----------------------0------------------------|
Ab|-0--0-00000---0-00000---0--0-00000---2-222224----|
Db|-0--0-00000---0-00000---0--0-00000---2-222224----|
  |    . .....   . .....      . .....   . .....  


Lead
eb|----------12----------9109---------12------------9109-|
Bb|-10-----10--1210----10----10-----10--12-10-----10-----|
Gb|-----911--------9-11----------911-----------911-------|
Db|------------------------------------------------------|
Ab|------------------------------------------------------|
Db|------------------------------------------------------|
  |
Rythm
eb|-------------------------------------------------|
Bb|-------------------------------------------------|
Gb|-------------------------------------------------|
Db|-0----------------------0------------------------|
Ab|-0--0-00000---0-00000---0--0-00000---2-222224----|
Db|-0--0-00000---0-00000---0--0-00000---2-222224----|
  |    . .....   . .....      . .....   . .....


Lead
eb|----------------------------------------------------------------|
Bb|-10-------------------------------------------------------------|
Gb|----------------------------------------------------------------|
Db|----------------------------------------------------------------|
Ab|----------------------------------------------------------------|
Db|----------------------------------------------------------------|
> Sustain until Rythm ends.
  |
eb|----------------------------------------------------------------|
Bb|----------------------------------------------------------------|
Gb|----------------------------------------------------------------|
Db|-0--------7--------2--------4--------0--------7--------2--------|
Ab|-0--------7--------2--------4--------0--------7--------2--------|
Db|-0--------7--------2--------4--------0--------7--------2--------|


	Chorus:
	
eb|-------------12-9--------------------------------|
Bb|--------91010----109-----------91010-------------|
Gb|-----911---------------------99------------------|
Db|--------------------119-------------11-1112119---|
Ab|-9-12------------------129-12-----------------12-|
Db|-------------------------------------------------|
  |
eb|-------------12-9-----------------------------|
Bb|--------91010----109-----------91010----------|
Gb|-----911---------------------99---------------|
Db|--------------------119-------------9-9119----|
Ab|-9-12------------------129-12-------------12--|
  |
Lead
eb|-17------141616~---------------21--------------------|
Bb|----14-17--------14-1514----------17-19212121^-1721~-|
Gb|------------------------16-1814----------------------|
Db|-----------------------------------------------------|
Ab|-----------------------------------------------------|
Db|-----------------------------------------------------|
  |
Rythm
eb|-----------------------------------------------------|
Bb|-----------------------------------------------------|
Gb|-14------111313~---------------18--------1313^---13~-|
Db|----11-14--------11-1211----------14-1618------14----|
Ab|------------------------14-1612----------------------|
Db|-----------------------------------------------------|

Lead
eb|-17------141616~---------------21--------------------|
Bb|----14-17--------14-1514----------17-19212121^-1721~-|
Gb|------------------------16-1814----------------------|
Db|-----------------------------------------------------|
Ab|-----------------------------------------------------|
Db|-----------------------------------------------------|
  |
Rythm
eb|-----------------------------------------------------|
Bb|-----------------------------------------------------|
Gb|-14------111313~---------------18--------1313^---13~-|
Db|----11-14--------11-1211----------14-1618------14----|
Ab|------------------------14-1612----------------------|
Db|-----------------------------------------------------|


	Outro:

eb|-----------------------------------------------------------|
Bb|-----------------------------------------------------------|
Gb|-----------------------------------------------------------|
Db|-0----------------------0-----------------------0----------|
Ab|-0--0-00000---0-00000---0--0-00000---2-222224---0--0-00000-|
Db|-0--0-00000---0-00000---0--0-00000---2-222224---0--0-00000-|
  |    . .....     .....      . .....   . .....       . ....

            
            
Suggest correction
Creating personal tab
Creating personal tab
You can edit any tab online and save it as your Personal.

You can edit, replace or remove any tab part or add personal notes – all changes will be seen only by you.

Personal tabs can be accessed anytime from any device, even offline.
Learn more »
comments
print report bad tab
guest
You may want to rate the tab now too:
select rating
Wanna post a correction for this tab? Suggest correction