Oops, an error
Loading. Please wait.

Needles And Pins bass

version 3
version 3

Whole song

Interactive

79 views 6 this week
no commentswrite comment
1 2 3 4 5
3 more votes to show rating
add to favorites
×
Save as Personal and add changes to this tab that will be seen only by you. Learn more ›
×
You can save this tab as Personal to edit and correct it or add notes. All changes will be seen only by you. Learn more »
launch autoscroll
font size
0
reset
guitar tuner
edit
Autoscroll
slow
fast
+/-
esc
set tempo
stop
Needles And Pins
Written by Jackie De Shannon this version By The Searchers topped the
UK charts in early 1964. Bass performance Tony Jackson.
Tab by bass50611. Welcome to my version of this chart topping classic
Other tabs have put the bass playing fifth’s, I think what sounds like
A fifth note is in fact the Kick Drum.

Intro:
G|------------------------------------------------------|
D|------------------------------------------------------|
A|-12---12-12----12---12-12----12---12-12----12---12-12-|
E|------------------------------------------------------|

Verse 1:                          (Play This Bit x3)
G|------------------------------------------------|
D|------------------------------------------------|
A|-12---12-12----12---12-12----9---9-9----9---9-9-|
E|------------------------------------------------|

Chorus 1:
G|------------------------------------------------------|
D|------------------------------------------------------|
A|------------------------------------------------------|
E|-10---10-10----10---10-10----12---12-12----12---12-12-|

Verse 2:                          (Play This Bit x3)
G|------------------------------------------------|
D|------------------------------------------------|
A|-12---12-12----12---12-12----9---9-9----9---9-9-|
E|------------------------------------------------|

Chorus 2:                                     (Pause)
G|-------------------------------------------------------------|
D|-------------------------------------------------------------|
A|-------------------------------------------------------------|
E|-10---10-10----10---10-10----12---12-12----12-------12-11-10-|

Bridge:
G|----------------------------------------------------------------|
D|----------------------------------------------------------------|
A|----------------------------------------------------------------|
E|-9---9-9----9---9-9----7---7-7----7---7-7----5---5-5----5---5-5-|

                     (Break)
G|---------------------|
D|---------------------|
A|---------------------|
E|-4-4-4-4-4-4-4-4---4-|

Verse 3: (Key Change)             (Play This Bit x3)
G|-----------------------------------------|
D|-----------------------------------------|
A|-----------------------------------------|
E|-9---9-9----9---9-9---6---6-6----6---6-6-|

Chorus 3:
G|------------------------------------------------|
D|------------------------------------------------|
A|-9---9-9----9---9-9-10-11---11-11----11---11-11-|
E|------------------------------------------------|

Outro:                                                               (End)
G|---------------------------------------------------------------------|
D|---------------------------------------------------------------------|
A|---------------------------------------------------------------------|
E|-9---9-9----9---9-9----9---9-9----9---9-9----9---9-9----9---9-9----9-|


            
            
Suggest correction
Creating personal tab
Creating personal tab
You can edit any tab online and save it as your Personal.

You can edit, replace or remove any tab part or add personal notes – all changes will be seen only by you.

Personal tabs can be accessed anytime from any device, even offline.
Learn more »
Give kudos to tab author, rate the tab!
1 2 3 4 5
comments
print report bad tab
guest
You may want to rate the tab now too:
select rating
Wanna post a correction for this tab? Suggest correction