Oops, an error
Loading. Please wait.

Sugar And Spice bass

version 1
version 1

Whole song

520 views 1 this week
no commentswrite comment
1 2 3 4 5
2 more votes to show rating
add to favorites
×
Save as Personal and add changes to this tab that will be seen only by you. Learn more ›
×
You can save this tab as Personal to edit and correct it or add notes. All changes will be seen only by you. Learn more »
launch autoscroll
font size
0
reset
guitar tuner
edit
Autoscroll
slow
fast
+/-
esc
set tempo
stop
Author
Sugar And Spice
The Searchers
Written by Fred Nightingale; released as a single with "Saints And Searchers" 
as the B-side, and on the album "Sugar And Spice".

Intro:
G|------- ------- ------- -------|------- ------- ------- -------|
D|------------0---2-----------2--|3-----------3---5--------------|
A|3-------3---------------3------|--------5-------------------2--|
E|-------------------------------|------------------------3------|
  ooooooooooooooooooooooooooooooooooooooooooooooooooooooooooooooo


G|------- ------- ------- -------|------- ------- ------- -------|
D|------------0---2-----------2--|3-----------3---5--------------|
A|3-------3---------------3------|--------5----------------------|
E|-------------------------------|------------------------3------|
  oooooooooooooooooooooooooooooooooooooooooooooooooooooooo

Refrain:
G|------- ------- ------- -------|------- ------- ------- -------|
D|------------2---5-----------2--|3-----------3---5--------------|
A|3-------3---------------3------|--------5-------------------2--|
E|-------------------------------|------------------------3------|
  Su- gar and     spice   and all     things  nice,


G|------- ------- 2------ 2------|3------ 3------ ------- -------|
D|-------------------------------|----------------5-------5------|
A|3-------3----------------------|-------------------------------|
E|-------------------------------|-------------------------------|
  kisses          sweeter than    wine,


G|------- ------- ------- -------|------- ------- ------- -------|
D|------------2---5-----------2--|3-----------3---5--------------|
A|3-------3---------------3------|--------5-------------------2--|
E|-------------------------------|------------------------3------|
  Su- gar and     spice   and all     things  nice,           you


G|------- ------- 2------ 2------|3------ 3------ ------- -------|
D|-------------------------------|----------------5-------5------|
A|3-------3----------------------|-------------------------------|
E|-------------------------------|-------------------------------|
  know    little  girl    is      mine.
      that

G|------- ------- ------- -------|------- ------- ------- -------|
D|------------0---2-----------2--|3-----------3---5--------------|
A|3-------3---------------3------|--------5-------------------2--|
E|-------------------------------|------------------------3------|



G|------- ------- ------- -------|------- ------- ------- -------|
D|------------0---2-----------2--|3-----------3---5--------------|
A|3-------3---------------3------|--------5----------------------|
E|-------------------------------|-------------------------------|


Verse:
G|------- ------- ------- -------|------- ------- ------- -------|
D|----------------2--------------|3---------------5--------------|
A|3------------------------------|-------------------------------|
E|-------------------------------|-------------------------------|
  Every - bo- dy  stops   and     stares  at  my  ba  -   by
  oooooooooooooooooooooooooooooooooooooooooooooooooooooooo

G|------- ------- ------- -------|------- ------- ------- -------|
D|----------------2--------------|3---------------5--------------|
A|3------------------------------|-------------------------------|
E|-------------------------------|-------------------------------|
  when she's walking down the street,
  oooooooooooooooooooooooooooooooooooooooooooooooo

G|------- ------- ------- -------|------- ------- ------- -------|
D|----------------2--------------|3---------------5--------------|
A|3------------------------------|-------------------------------|
E|-------------------------------|-------------------------------|
  People  passing by      just    look at     my  ba  -   by,
  oooooooooooooooooooooooooooooooooooooooooooooooooooooooo

G|------- ------- ------- -------|------- ------- ------- -------|
D|----------------2--------------|3---------------5--------------|
A|3------------------------------|-------------------------------|
E|-------------------------------|-------------------------------|
 'cause my baby   looks so    sweet.          You know    she's
  oooooooooooooooooooooooooooooooooooooooooooooooo
Refrain:
G|------- ------- ------- -------|------- ------- ------- -------|
D|------------2---5-----------2--|3-----------3---5--------------|
A|3-------3---------------3------|--------5-------------------2--|
E|-------------------------------|------------------------3------|
  su- gar and     spice   and all     things  nice,


G|------- ------- 2------ 2------|3------ 3------ ------- -------|
D|-------------------------------|----------------5-------5------|
A|3-------3----------------------|-------------------------------|
E|-------------------------------|-------------------------------|
  kisses          sweeter than    wine,


G|------- ------- ------- -------|------- ------- ------- -------|
D|------------2---5-----------2--|3-----------3---5--------------|
A|3-------3---------------3------|--------5-------------------2--|
E|-------------------------------|------------------------3------|
  Su- gar and     spice   and all     things  nice,           you


G|------- ------- 2------ 2------|3------ 3------ ------- -------|
D|-------------------------------|----------------5-------5------|
A|3-------3----------------------|-------------------------------|
E|-------------------------------|-------------------------------|
  know    little  girl    is      mine.
      that

G|------- ------- ------- -------|------- ------- ------- -------|
D|------------0---2-----------2--|3-----------3---5--------------|
A|3-------3---------------3------|--------5-------------------2--|
E|-------------------------------|------------------------3------|



G|------- ------- ------- -------|------- ------- ------- -------|
D|------------0---2-----------2--|3-----------3---5--------------|
A|3-------3---------------3------|--------5----------------------|
E|-------------------------------|-------------------------------|


Verse:
G|------- ------- ------- -------|------- ------- ------- -------|
D|----------------2--------------|3---------------5--------------|
A|3------------------------------|-------------------------------|
E|-------------------------------|-------------------------------|
  Every   time we kiss,   I       get that    fee    -    ling,
  oooooooooooooooooooooooooooooooooooooooooooooooooooooooo

G|------- ------- ------- -------|------- ------- ------- -------|
D|----------------2--------------|3---------------5--------------|
A|3------------------------------|-------------------------------|
E|-------------------------------|-------------------------------|
  every   time we simply      meet,
  oooooooooooooooooooooooooooooooooooooooooooooooo

G|------- ------- ------- -------|------- ------- ------- -------|
D|----------------2--------------|3---------------5--------------|
A|3------------------------------|-------------------------------|
E|-------------------------------|-------------------------------|
  When I  see her smile,  I       get that    fee    -    ling,
  oooooooooooooooooooooooooooooooooooooooooooooooooooooooo

G|------- ------- ------- -------|------- ------- ------- -------|
D|----------------2--------------|3---------------5--------------|
A|3------------------------------|-------------------------------|
E|-------------------------------|-------------------------------|
 'cause my baby   looks so    sweet.          You know    she's
  oooooooooooooooooooooooooooooooooooooooooooooooo
Refrain:
G|------- ------- ------- -------|------- ------- ------- -------|
D|------------2---5-----------2--|3-----------3---5--------------|
A|3-------3---------------3------|--------5-------------------2--|
E|-------------------------------|------------------------3------|
  su- gar and     spice   and all     things  nice,


G|------- ------- 2------ 2------|3------ 3------ ------- -------|
D|-------------------------------|----------------5-------5------|
A|3-------3----------------------|-------------------------------|
E|-------------------------------|-------------------------------|
  kisses          sweeter than    wine,


G|------- ------- ------- -------|------- ------- ------- -------|
D|------------2---5-----------2--|3-----------3---5--------------|
A|3-------3---------------3------|--------5-------------------2--|
E|-------------------------------|------------------------3------|
  Su- gar and     spice   and all     things  nice,           you


G|------- ------- 2------ 2------|3------ 3------ ------- -------|
D|-------------------------------|----------------5-------5------|
A|3-------3----------------------|-------------------------------|
E|-------------------------------|-------------------------------|
  know    little  girl    is      mine.
      that

G|------- ------- ------- -------|------- ------- ------- -------|
D|------------0---2-----------2--|3-----------3---5--------------|
A|3-------3---------------3------|--------5-------------------2--|
E|-------------------------------|------------------------3------|



G|------- ------- ------- -------|------- ------- ------- -------|
D|------------0---2-----------2--|3-----------3---5--------------|
A|3-------3---------------3------|--------5----------------------|
E|-------------------------------|-------------------------------|


Verse:
G|------- ------- ------- -------|------- ------- ------- -------|
D|----------------2--------------|3---------------5--------------|
A|3------------------------------|-------------------------------|
E|-------------------------------|-------------------------------|
  Ne- ver e - ver known   a   girl        so      love -  ly,
  oooooooooooooooooooooooooooooooooooooooooooooooooooooooo

G|------- ------- ------- -------|------- ------- ------- -------|
D|----------------2--------------|3---------------5--------------|
A|3------------------------------|-------------------------------|
E|-------------------------------|-------------------------------|
  sweet enough to want    to  eat,
  oooooooooooooooooooooooooooooooooooooooooooooooo

G|------- ------- ------- -------|------- ------- ------- -------|
D|----------------2--------------|3---------------5--------------|
A|3------------------------------|-------------------------------|
E|-------------------------------|-------------------------------|
  Every - body's  cra  -  zy     'bout    my      ba  -   by,
  oooooooooooooooooooooooooooooooooooooooooooooooooooooooo

G|------- ------- ------- -------|------- ------- ------- -------|
D|----------------2--------------|3---------------5--------------|
A|3------------------------------|-------------------------------|
E|-------------------------------|-------------------------------|
 'cause my baby   looks so    sweet.          You know    she's
  oooooooooooooooooooooooooooooooooooooooooooooooo
Refrain:
G|------- ------- ------- -------|------- ------- ------- -------|
D|------------2---5-----------2--|3-----------3---5--------------|
A|3-------3---------------3------|--------5-------------------2--|
E|-------------------------------|------------------------3------|
  su- gar and     spice   and all     things  nice,


G|------- ------- 2------ 2------|3------ 3------ ------- -------|
D|-------------------------------|----------------5-------5------|
A|3-------3----------------------|-------------------------------|
E|-------------------------------|-------------------------------|
  kisses          sweeter than    wine,


G|------- ------- ------- -------|------- ------- ------- -------|
D|------------2---5-----------2--|3-----------3---5--------------|
A|3-------3---------------3------|--------5-------------------2--|
E|-------------------------------|------------------------3------|
  Su- gar and     spice   and all     things  nice,           you


G|------- ------- 2------ 2------|3------ 3------ ------- -------|
D|-------------------------------|----------------5-------5------|
A|3-------3----------------------|-------------------------------|
E|-------------------------------|-------------------------------|
  know    little  girl    is      mine.
      that
Outro:
G|------- ------- ------- -------|------- ------- ------- -------|
D|------------0---2-----------2--|3-----------3---5--------------|
A|3-------3---------------3------|--------5-------------------2--|
E|-------------------------------|------------------------3------|
  ooooooooooooooooooooooooooooooooooooooooooooooooooooooooooooooo


G|------- ------- ------- -------|------- ------- ------- -------|
D|------------0---2-----------2--|3-----------3---5--------------|
A|3-------3---------------3------|--------5-------------------2--|
E|-------------------------------|------------------------3------|
  oooooooooooooooooooooooooooooooooooooooooooooooooooooooo


G|------- ------- ------- -------|------- ------- ------- -------|
D|------------0---2-----------2--|3-----------3---5--------------|
A|3-------3---------------3------|--------5----------------------|
E|-------------------------------|-------------------------------|
  oooooooooooooooooooooooooooooooooooooooooooooooooooooooo


G|------- ------- ------- -------|------- ------- ------- -------|
D|-------------------------------|-------------------------------|
A|3------------------------------|-------------------------------|
E|-------------------------------|-------------------------------|


Please e-mail me for any corrections, or write a comment.

            
            
Suggest correction
Creating personal tab
Creating personal tab
You can edit any tab online and save it as your Personal.

You can edit, replace or remove any tab part or add personal notes – all changes will be seen only by you.

Personal tabs can be accessed anytime from any device, even offline.
Learn more »
Give kudos to tab author, rate the tab!
1 2 3 4 5
comments
print report bad tab
guest
You may want to rate the tab now too:
select rating
Wanna post a correction for this tab? Suggest correction