Oops, an error
Loading. Please wait.

What Have They Done To The Rain bass

61 views 6 this week
no commentswrite comment
1 2 3 4 5
2 more votes to show rating
add to favorites
×
Save as Personal and add changes to this tab that will be seen only by you. Learn more ›
×
You can save this tab as Personal to edit and correct it or add notes. All changes will be seen only by you. Learn more »
launch autoscroll
font size
0
reset
guitar tuner
edit
Autoscroll
slow
fast
+/-
esc
set tempo
stop
Author
What Have They Done To The Rain
1964 single release by The Searchers. Peaked at #13 UK charts
Bass performance Frank Allen. Tab by bass50611. Welcome to my tab
Of this Searcher’s classic. Not exact but very close to original. 
One has to listen to the phrasing 

Intro:
G|------------------|
D|-x----x----2----2-|
A|------------------|
E|------------------|

Verse 1:
   Just a Little rain...falling all around...The grass lifts its head
G|---------------------------------------------------------------------|
D|-2-------------2------4--------2---------------4-----------4---------|
A|-----------------------------------2----------------------------2----|
E|---------------------------------------------------------------------|

    To the heavenly sound....Just a little rain.....Just a little rain
G|---------------------------------------------------------------------|
D|-0--1--2-------2-------------------------6-----6---------------------|
A|-------------------2-------4-------4---------------6-------6---------|
E|-----------------------------------------------------------------6---|

   What have they done to the rain
G|---------------------------------4-|
D|-----------------------------------|
A|-------------------1--2------2-----|
E|-5----------5---5------------------|

Verse 2:
   Just A little boy...standing in the rain...The gentle rain that falls
G|----------------------------------------------------------------------|
D|---2-----2-----------4-----------2---------------4-----------4--------|
A|-2-------------2---------------------2----------------------------2---|
E|----------------------------------------------------------------------|

     For years....And the grass is gone...the boy disappears...And rain
G|----------------------------------------------------------------------|
D|-0--1--2-------------------------6------------------------------------|
A|-------------2-------4--------4-------------6----6--------------------|
E|------------------------------------------6---------6-------------5---|

  Keeps falling...like helpless tears...And what have they done
G|--------------------------------------------------------------|
D|--------------------------------------------------------------|
A|----------------------7------7----7---------------------------|
E|-5----5-----------------------------------5----------5----5---|

   To the rain...
G|--------------------|
D|---------------0--1-|
A|-2----2---2---------|
E|--------------------|

Verse 3: (Basically Use The Same Format as Verse 1)
G|---------------------------------------------------------------------|
D|-2-------------2------4--------2---------------4------------4--------|
A|-----------------------------------2----------------------------2----|
E|---------------------------------------------------------------------|

G|---------------------------------------------------------------------|
D|-0--1--2-------2-------------------------6-----6---------------------|
A|-------------------2-------4-------4---------------6-------6---------|
E|-----------------------------------------------------------------6---|

G|----------------------------------4-|
D|------------------------------------|
A|-------------------------2-----2----|
E|-5----------5---5-------------------|

Verse 4: (Basically Use Same Format As Verse 2)
G|----------------------------------------------------------------------|
D|---2-------2-----------4-----------2---------------4-----------4------|
A|-2---------------2---------------------2----------------------------2-|
E|----------------------------------------------------------------------|

G|----------------------------------------------------------------------|
D|-0--1--2-------------------------6------------------------------------|
A|-------------2-------4--------4-------------6----6--------------------|
E|------------------------------------------6---------6-------------5---|

G|-----------------------------------------------------------------|
D|---------------------------------------------------------------9-|
A|---------------7------7----7-------------------------------------|
E|-5----5----------------------------5-------5----5-----7-----7----|

Outro;
G|----------------------------------------------------|
D|----------------------------------------------------|
A|----------------------------5--6--7----7--5----5--7-|
E|-7--5----5--5----7----7--7--------------------------|

Suggest correction
Creating personal tab
Creating personal tab
You can edit any tab online and save it as your Personal.

You can edit, replace or remove any tab part or add personal notes – all changes will be seen only by you.

Personal tabs can be accessed anytime from any device, even offline.
Learn more »
Give kudos to tab author, rate the tab!
1 2 3 4 5
comments
print report bad tab
guest
You may want to rate the tab now too:
select rating
Wanna post a correction for this tab? Suggest correction