Oops, an error
Loading. Please wait.

Walking Man Tab

version 1
version 1

Whole song

47,610 views 72 this week
2 commentsread comments
1 2 3 4 5
x 7
add to favorites
launch autoscroll
font size
0
reset
how to read this tab
guitar tuner
Autoscroll
slow
fast
+/-
esc
set tempo
stop
Help us to improve Ultimate-Guitar.com Take our survey!
×
Author
Difficulty
Tuning
intermediate
D A D F# A D
Walking Man
by Seasick Steve
Tabbed by Stylaphone

It does sound better to use an actual Slide.

VERSE
|-2/40-0---------|-2/40-0---------|
|----0-0---------|----0-0---------|
|----------------|----------------|x5
|----------0---0-|----------0---0-|
|-------0h2-0h2--|-------0h2-0h2--|
|-0---0----------|-0---0----------|

CHORUS
|-2/40-0---------|------------------|
|----0-0---------|------------------|
|----------------|------------------|
|----------0---0-|-2/4-4/7-3\2p3\2p-|
|-------0h2-0h2--|------------------|
|-0---0----------|------------------|

SMALL SLIDE RIFF
|-2/7-7/9-4\24\2-|
|----------------|
|----------------|
|----------------|
|----------------|
|----------------|
Suggest correction
comments
print report bad tab
2 comments total.
0 reply
Clemo103 80 Apr 28, 2010 06:34 PM

Very good! Thank you very much, have a gold star! And yes, using the slide is infinitely better.

0 reply
redbad14 10 Jun 27, 2016 09:52 AM

|-2/40-0----0--0--|-2/40-0---0---0--|
|----0-0--- 0-----|----0-0---0------|
|-----------------|-----------------|
|----------------0|---------------0-|
|-------0h2- 2----|-------0h2--2----|
|-0---0-----------|-0---0-----------|
This is how I play it. If you listen to the song it sounds more like this I think

guest
You may want to rate the tab now too:
select rating
Wanna post a correction for this tab? Suggest correction