Oops, an error
Loading. Please wait.

11 11 Tab

1,319 views 1 this week
1 commentread comment
1 2 3 4 5
please rate
add to favorites
launch autoscroll
font size
0
reset
how to read this tab
guitar tuner
Autoscroll
slow
fast
+/-
esc
set tempo
stop
Help us to improve Ultimate-Guitar.com Take our survey!
×
Author
-----------------------------------------------------------------------------
                          11:11 - Seasons After
-----------------------------------------------------------------------------


            *****DO NOT ACCEPT ------ NOT FINISHED*****



http://www.seasonsafter.com/

Label: Dirtbag Records

Tabbed by:COLDFAN
Email:coldfan27@yahoo.com

Ok while going through the threads to see if there where any tabs that people 
where looking for but for some reason could not find......i came across this 
song and was amazed and ended up adding it to my iTunes

Hope u Guys enjoy this 

Tuning:CGCFAD  -  Drop C  - 

-Lyrics-
You taught me all you thought that I need to know
And then you passed away
And then you passed away
What is my destination?
What will become of me on that cold day? On that cold day.

Getting all these messages from voices in my head
Warning me of much to do before I wake up dead

Stand for something now
Or fall for anything
The time has come to shout loud
I won't go quietly
Won't be a face in the crowd
I'll stand defiantly
Keep on beating me down
You can't beat me out of me

Tomorrow is promised to no man
When death comes calling we must take his hand (we must take his hand)
Don't wait until the final hour 
it may never arrive
if that's the plan (if that's the plan)

Getting all these messages from voices in my head
Warning me how much to do before I wake up dead

Stand for something now
Or fall for anything
The time has come to shout loud
I won't go quietly
Won't be a face in the crowd
I'll stand defiantly
Keep on beating me down
You can't beat me out of me

AHH Come on
I Fear its all just a show
I know we all fall down
And one day I will return to the ground
I scream at you but I won't come down
Time is now

You've got to
Stand for something now
Or fall for anything
The time has come to shout loud
I won't go quietly
Won't be a face in the crowd
I'll stand defiantly
Keep on beating me down
You can't beat me out of me

Stand for something now
(Can't beat me out of me)
(repeats) 

Rhythm Guitar / Intro play x2 then same for pre-verse along with lead
e|--------------------------------------------------------------------------|
B|--------------------------------------------------------------------------|
G|--------------------------------------------------------------------------|
D|-0~~~------8~~~------3~~~-------------------------------------------------|
A|-0~~~------8~~~------3~~~-------------------------------------------------|
E|-0~~~------8~~~------3~~~-------------------------------------------------|


Lead Guitar / Intro
e|--------------------------------------------------------------------------|
B|-----10-----10---10-----8-----8---8-----6-----6---6-----8-----8---8-------|
G|-7-7----7-7----7----7-7---7-7---7---7-7---7-7---7---7-7---7-7---7---------|
D|--------------------------------------------------------------------------|
A|------------------( repeat x2 )-------------------------------------------|
E|--------------------------------------------------------------------------|

*then end of intro for lead is this little bit
e|--------------------------------------------------------------------------|
B|-8-p-7-p-6----------------------------------------------------------------|
G|-----------h7-6h7---------------------------------------------------------|
D|--------------------------------------------------------------------------|
A|-------------(not quite sure bout this but it works)----------------------|
E|--------------------------------------------------------------------------|

Right before singer screams ...... WOW
e|--------------------------------------------------------------------------|
B|--------------------------------------------------------------------------|
G|-------10-------10-------10------9-9h10p9---------------------------------|
D|--7-8------7-8------7-8------7-8----------10~~----------------------------|
A|--------------------------------------------------------------------------|
E|-----pre verse bit--------------------------------------------------------|


Verse - Rhythm and lead play this together until singer comes in
e|--------------------------------------------------------------------------|
B|--------------------------------------------------------------------------|
G|-----------(this is before singing starts)--------------------------------|
D|--------------------------------------------------------------------------|
A|-----0------0------0------0------0------0------0------0-------------------|
E|-000-0--000-0--000-0--000-0--000-0--000-0--000-0--000-0-------------------|


Rhythm
e|--------------------------------------------------------------------------|
B|--------------------------------------------------------------------------|
G|---------------------3-----------------------7----------------3-----------|
D|---------------------3-----------------------7----------------3-----------|
A|-000-0--000-0--000-0-1---333-3--333-3--333-3-5--000-0--000-0--1-----------|
E|-000-0--000-0--000-0-----333-3--333-3--333-3----000-0--000-0--------------|


e|--------------------------------------------------------------------------|
B|--------------------------------------------------------------------------|
G|--------------------------------------------------------------------------|
D|--------------------------------------------------------------------------|
A|-333-3--333-3--333-3--333333-222222---------------------------------------|
E|-333-3--333-3--333-3--333333-222222---------------------------------------|

e|--------------------------------------------------------------------------|
B|--------------------------------------------------------------------------|
G|--------------------------------------------------------------------------|
D|-7p0h7p0h7p0h7p0-8p0h8p0h8p0h8p0-10p0h10p0h10p0h10p0----------------------|
A|--------------------------------------------------------------------------|
E|--------------------------------------------------------------------------|



************************************

| /   slide up
| \   slide down
| h   hammer-on
| p   pull-off
| ~   vibrato
| +   harmonic
| x   Mute note
| b   Bend
| pb  Pre-bend
| br  Bend release
| pbr Pre-bend release
| brb Bend release bend

************************************
Suggest correction
Give kudos to tab author, rate the tab!
1 2 3 4 5
comments
print report bad tab
1 comment total.
0 reply
coldfan 210 wrote on March 3 2011, 01:04 pm

This tab was not finished and was accepted anyway .... i hope that i can finish this

Coldfan

guest
You may want to rate the tab now too:
select rating
Wanna post a correction for this tab? Suggest correction