Oops, an error
Loading. Please wait.

Cry Little Sister Tab

version 1
version 1

Whole song

Interactive

9,751 views 12 this week
no commentswrite comment
1 2 3 4 5
excellent!
x 3
add to favorites
launch autoscroll
font size
0
reset
how to read this tab
guitar tuner
Autoscroll
slow
fast
+/-
esc
set tempo
stop
Help us to improve Ultimate-Guitar.com Take our survey!
×
Author
Tabbed by: Mike Quall
Email:michael.quall@mtmc.edu

There are two guitarists but this is arranged for Dawson's part. I saw them live
up close and this is how he plays it.

Tuning:CGCFAD

Intro (clean) w/ delay

D|---------------------------------------------------------------------------|
A|---------------------------------------------------------------------------|
F|---------------------------------------------------------------------------|
C ---4---4-4---5-5---4-4---5-5--------4---4-4---5-5-----4-----5--------------|
G|-----2-----2-----2-----2-----2-2------0-----0-----0-0---0-0---0-0----------|
C|-2--------------------------------0----------------------------------------|

D|---------------------------------------------------------------------------|
A|---------------------------------------------------------------------------|
F|---------------------------------------------------------------------------|
C|---4---4-4---5-5---4-4---5-5--------4---4-4---5-5--4-----------------------|
G|-----2-----2-----2-----2-----2-2------0-----0------0-~~~~~-----------------|
C|-2--------------------------------0----------------0-----------------------|
   (distortion)
D|-----------------------------------------------------------------------------|
A|-----------------------------------------------------------------------------|
F|-----------------------------------------------------------------------------|
C|---0-2--0-2--0-2--0-2---X----------0-2--0-2--0-2--0-2---0--------------------|
G|---0-2--0-2--0-2--0-2---X--3*~~~---0-2--0-2--0-2--0-2---0--------------------|
C|---0-2--0-2--0-2--0-2---X----------0-2--0-2--0-2--0-2---0--3-3-3-3-3-3-------|
                                                         pm-------------

D|-----------------------------------------------------------------------------|
A|-----------------------------------------------------------------------------|
F|-----------------------------------------------------------------------------|
C|---0-2--0-2--0-2--0-2---X----------0-2--0-2--0-2---3-3-3-3-0~~~~~~-----------|
G|---0-2--0-2--0-2--0-2---X--3*~~~---0-2--0-2--0-2---3-3-3-3-0~~~~~~-----------|
C|---0-2--0-2--0-2--0-2---X----------0-2--0-2--0-2---3-3-3-3-0~~~~~~-----------|
                                                    pm------


(Verse)

D|-----------------------------------------------------------------------------|
A|-----------------------------------------------------------------------------|
F|-----------------------------------------------------------------------------|
C|-----4---4-4---5-5---4-4---5-5--------4----4-4-----5-5-----4-----5-----------|
G|-------2-----2-----2-----2-----2-2-------0-----0-0-----0-0---0-0---0-0-------|
C|---2--------------------------------0----------------------------------------|

D|-----------------------------------------------------------------------------------|
A|-----------------------------------------------------------------------------------|
F|-----------------------------------------------------------------------------------|
C|---4---4-4---5-5---4-4---5-5------7-7---5-5---4-4---5-5---5-5-----4h5--------------|
G|-----2-----2-----2-----2-----2-2------0-----0-----0-----0-----0-0------------------|
C|-2---------------------------------------------------------------------------------|

D|-----------------------------------------------------------------------------|
A|-----------------------------------------------------------------------------|
F|-----------------------------------------------------------------------------|
C|-----4---4-4---5-5---4-4---5-5--------4----4-4-----5-5-----4-----5-----------|
G|-------2-----2-----2-----2-----2-2-------0-----0-0-----0-0---0-0---0-0-------|
C|---2--------------------------------0----------------------------------------|

D|---------------------------------------------------------------------------|
A|---------------------------------------------------------------------------|
F|---------------------------------------------------------------------------|
C|---4---4-4---5-5---4-4---5-5------7-7---5-5---4-4---5-5---5-5-----4h5------|
G|-----2-----2-----2-----2-----2-2------0-----0-----0-----0-----0-0----------|
C|-2-------------------------------------------------------------------------|

Chorus

D|------------------------------------------------------------------------------|
A|------------------------------------------------------------------------------|
F|----5-------------------------------------------------------------------------|
C|----5-----5-------------------------------------------------------------------|
G|----3-----5-------------------------------------------------------------------|
C|----------5-----0-0-0-0-0-0-0-0-0-0-0-0-0-0-0-0-------------------------------|
                pm-------------------------------|
D|------------------------------------------------------------------------------|
A|------------------------------------------------------------------------------|
F|----5-------------------------------------------------------------------------|
C|----5-----5-------------------------------------------------------------------|
G|----3-----5-------------------------------------------------------------------|
C|----------5------00-000--0-000--0-000--0-000----------------------------------|
                 pm---------------------------|
D|------------------------------------------------------------------------------|
A|------------------------------------------------------------------------------|
F|----5-------------------------------------------------------------------------|
C|----5-----5-------------------------------------------------------------------|
G|----3-----5-------------------------------------------------------------------|
C|----------5-----0-0-0-0-0-0-0-0-0-0-0-0-0-0-0-0-------------------------------|
                pm-------------------------------|
D|------------------------------------------------------------------------------|
A|------------------------------------------------------------------------------|
F|----5-------------------------------------------------------------------------|
C|----5-----5--------------------------------------2----------------------------|
G|----3-----5--------------------------------------2----------------------------|
C|----------5------00-000--0-000--0-000--0-000-----2----------------------------|
                 pm---------------------------|

Verse

Chorus

(Bridge)
D|-----------------------------------------------------------------------------|
A|-----------------------------------------------------------------------------|
F|----5------------------------------------------------------------------------|
C|----5---0--------------------------------------------------------------------|
G|----3---0--------------------------------------------------------------------|
C|--------0-----0h2222222-0h222-0h2222222-0h2222222-0h222-0h2222222-0h222------|
                (leave open on hammer on's and pm rest)


D|---------------------------------------------------------------------------|
A|---------------------------------------------------------------------------|
F|---------------------------------------------(THIS PART IS OPTIONAL)-------|
C|-----------------------------------/13-10-----16-13-----19-16-----19-16----|
G|------------------------------------------9---------12--------15-----------|
C|---0h2222222-0h2222222-0h222-0h2-------------------------------------------|

(slide down)
D|---------------------------------------------------------------------------|
A|---------------------------------------------------------------------------|
F|---------------------------------------------------------------------------|
C|------------0-2--2-0--0-2--2-0--0-2--2-0--0-2------------------------------|
G|------------0-2--2-0--0-2--2-0--0-2--2-0--0-2------------------------------|
C|------------0-2--2-0--0-2--2-0--0-2--2-0--0-2------------------------------|

(VERSE)
D|---------------------------------------------------------------------------|
A|---------------------------------------------------------------------------|
F|---------------------------------------------------------------------------|
C ---4---4-4---5-5---4-4---5-5--------4---4-4---5-5-----4-----5--------------|
G|-----2-----2-----2-----2-----2-2------0-----0-----0-0---0-0---0-0----------|
C|-2--------------------------------0----------------------------------------|

D|---------------------------------------------------------------------------|
A|---------------------------------------------------------------------------|
F|---------------------------------------------------------------------------|
C ---4---4-4---5-5---4-4---5-5--------4---4-4---5-5-----4-----5--------------|
G|-----2-----2-----2-----2-----2-2------0-----0-----0-0---0-0---0-0----------|
C|-2--------------------------------0----------------------------------------|

D|---------------------------------------------------------------------------|
A|---------------------------------------------------------------------------|
F|---------------------------------------------------------------------------|
C|--5-5-5-7-7-7-9-9-9-10-10-10-10-10-10-10--(3 times)------------------------|
G|---------------------------------------------------------------------------|
C|---------------------------------------------------------------------------|

(CHORUS 2 TIMES)

THE END


************************************

| /   slide up
| \   slide down
| h   hammer-on
| p   pull-off
| ~   vibrato
| *   pinch harmonic
| x   Mute note
| b   Bend
| pb  Pre-bend
| br  Bend release
| pbr Pre-bend release
| brb Bend release bend
Suggest correction new What's this?
You can suggest a correction to this tab. Community and Mods will review your correction and vote to approve or reject it.
comments
We did not receive enough feedback on this tab! Please rate:
print report bad tab
1 2 3 4 5
guest
You may want to rate the tab now too:
select rating
Please do not post tabs as comments. Select "correction" instead!