Oops, an error
Loading. Please wait.

Apartment tab

by Seaway
895 views 36 this week
no commentswrite comment
1 2 3 4 5
2 more votes to show rating
add to favorites
×
Save as Personal and add changes to this tab that will be seen only by you. Learn more ›
×
You can save this tab as Personal to edit and correct it or add notes. All changes will be seen only by you. Learn more »
launch autoscroll
font size
0
reset
how to read this tab
guitar tuner
edit
Autoscroll
slow
fast
+/-
esc
set tempo
stop
My cover: https://www.youtube.com/watch?v=himIBWd0BoE

[Intro]
D#|--------------------------------------------------------------------------------|
A#|--------------------------------------------------------------------------------|
F#|--------------------------------------------------------------------------------|
C#|------0h2/4----4\2p0 ------0h2/4----4\2p0-------0h2/4---4\2p0-----2-4---2/4-0---|
G#|---0---------0-----------0--------0-----------0-------0---------2-----0---------|
C#|-0---------------------0--------------------0-----------------------------------|

[Verse]
D#|--------------------------------------------------------------------------------|
A#|--------------------------------------------------------------------------------|
F#|--------------------------------------------------------------------------------|
C#|------0h2/4----4\2p0 ------0h2/4----4\2p0-------0h2/4---4\2p0-----2-4---2/4-0---|
G#|---0---------0-----------0--------0-----------0-------0---------2-----0---------|
C#|-0---------------------0--------------------0-----------------------------------|

D#|--------------------------------------------------------------------------------|
A#|--------------------------------------------------------------------------------|
F#|--------------------------------------------------------------------------------|
C#|------0h2/4----4\2p0 ------0h2/4----4\2p0-------0h2/4---4\2p0-----2-4---2/4-0---|
G#|---0---------0-----------0--------0-----------0-------0---------2-----1---------|
C#|-0---------------------0--------------------0-----------------------------------|

D#|---------------------------------------------------------------------------|
A#|---------------------------------------------------------------------------|
F#|---------------------------------------------------------------------------|
C#|--------------------------------------7--7---------------------------------|
G#|-5----------5------------9------------5--5---------------------------------|
C#|-0----------4------------9------------5--5---------------------------------|

[Chorus]
D#|---------------------------------------------------------------------------|
A#|---------------------------------------------------------------------------|
F#|---------------------------------------------------------------------------|
C#|-0-0-0-0-0-0-0-0--4-4-4-4-4-4-4-4--9-9-9-9-9-9-9-9--7-7-7-7-7-7-7-7--------|
G#|-0-0-0-0-0-0-0-0--5-5-5-5-5-5-5-5--9-9-9-9-9-9-9-9--5-5-5-5-5-5-5-5--------|
C#|-0-0-0-0-0-0-0-0--4-4-4-4-4-4-4-4--9-9-9-9-9-9-9-9--5-5-5-5-5-5-5-5--------|

D#|---------------------------------------------------------------------------|
A#|---------------------------------------------------------------------------|
F#|---------------------------------------------------------------------------|
C#|-0-0-0-0-0-0-0-0--4-4-4-4-4-4-4-4--9-9-9-9-9-9-9-9--7-7-7-7-7-7-7-7--------|
G#|-0-0-0-0-0-0-0-0--5-5-5-5-5-5-5-5--9-9-9-9-9-9-9-9--5-5-5-5-5-5-5-5--------|
C#|-0-0-0-0-0-0-0-0--4-4-4-4-4-4-4-4--9-9-9-9-9-9-9-9--5-5-5-5-5-5-5-5--------|

D#|---------------------------------------------------------------------------|
A#|---------------------------------------------------------------------------|
F#|------------------6-6-6-6-6-6-6-6------------------------------------------|
C#|-0-0-0-0-0-0-0-0--7-7-7-7-7-7-7-7--9-9-9-9-9-9-9-9-------------------------|
G#|-0-0-0-0-0-0-0-0--4-4-4-4-5-5-5-5--9-9-9-9-9-9-9-9---------5--4------------|
C#|-0-0-0-0-0-0-0-0----------4-4-4-4--9-9-9-9-9-9-9-9---5/7----------5b6------|

[Verse]
D#|--------------------------------------------------------------------------------|
A#|--------------------------------------------------------------------------------|
F#|--------------------------------------------------------------------------------|
C#|------0h2/4----4\2p0 ------0h2/4----4\2p0-------0h2/4---4\2p0-----2-4---2/4-0---|
G#|---0---------0-----------0--------0-----------0-------0---------2-----0---------|
C#|-0---------------------0--------------------0-----------------------------------|

D#|--------------------------------------------------------------------------------|
A#|--------------------------------------------------------------------------------|
F#|--------------------------------------------------------------------------------|
C#|------0h2/4----4\2p0 ------0h2/4----4\2p0-------0h2/4---4\2p0-----2-4---2/4-0---|
G#|---0---------0-----------0--------0-----------0-------0---------2-----0---------|
C#|-0---------------------0--------------------0-----------------------------------|

D#|--------------------------------------------------------------------------------|
A#|--------------------------------------------------------------------------------|
F#|--------------------------------------------------------------------------------|
C#|------0h2/4----4\2p0 ------0h2/4----4\2p0-------0h2/4---4\2p0-----2-4---2/4-0---|
G#|---0---------0-----------0--------0-----------0-------0---------2-----1---------|
C#|-0---------------------0--------------------0-----------------------------------|

D#|---------------------------------------------------------------------------|
A#|---------------------------------------------------------------------------|
F#|---------------------------------------------------------------------------|
C#|-7-7-7-7-7-7----------------------------------------7--7-------------------|
G#|-5-5-5-5-5-5---5----------5------------9------------5--5-------------------|
C#|-5-5-5-4-4-4---0----------4------------9------------5--5-------------------|

[Chorus]
D#|---------------------------------------------------------------------------|
A#|---------------------------------------------------------------------------|
F#|---------------------------------------------------------------------------|
C#|-0-0-0-0-0-0-0-0--4-4-4-4-4-4-4-4--9-9-9-9-9-9-9-9--7-7-7-7-7-7-7-7--------|
G#|-0-0-0-0-0-0-0-0--5-5-5-5-5-5-5-5--9-9-9-9-9-9-9-9--5-5-5-5-5-5-5-5--------|
C#|-0-0-0-0-0-0-0-0--4-4-4-4-4-4-4-4--9-9-9-9-9-9-9-9--5-5-5-5-5-5-5-5--------|

D#|---------------------------------------------------------------------------|
A#|---------------------------------------------------------------------------|
F#|---------------------------------------------------------------------------|
C#|-0-0-0-0-0-0-0-0--4-4-4-4-4-4-4-4--9-9-9-9-9-9-9-9--7-7-7-7-7-7-7-7--------|
G#|-0-0-0-0-0-0-0-0--5-5-5-5-5-5-5-5--9-9-9-9-9-9-9-9--5-5-5-5-5-5-5-5--------|
C#|-0-0-0-0-0-0-0-0--4-4-4-4-4-4-4-4--9-9-9-9-9-9-9-9--5-5-5-5-5-5-5-5--------|

D#|---------------------------------------------------------------------------|
A#|---------------------------------------------------------------------------|
F#|------------------6-6-6-6-6-6-6-6------------------------------------------|
C#|-0-0-0-0-0-0-0-0--7-7-7-7-7-7-7-7--9-9-9-9-9-9-9-9-------------------------|
G#|-0-0-0-0-0-0-0-0--4-4-4-4-5-5-5-5--9-9-9-9-9-9-9-9---------5--4------------|
C#|-0-0-0-0-0-0-0-0----------4-4-4-4--9-9-9-9-9-9-9-9---5/7----------5b6------|

D#|---------------------------------------------------------------------------|
A#|---------------------------------------------------------------------------|
F#|------------------6-6-6-6-6-6-6-6------------------------------------------|
C#|-0-0-0-0-0-0-0-0--7-7-7-7-7-7-7-7--9-9-9-9-9-9-9-9-------------------------|
G#|-0-0-0-0-0-0-0-0--4-4-4-4-5-5-5-5--9-9-9-9-9-9-9-9---------5--4------------|
C#|-0-0-0-0-0-0-0-0----------4-4-4-4--9-9-9-9-9-9-9-9---5/7----------5b6------|

[Bridge]
D#|-----------------------------------------------------------------------------|
A#|-----------------------------------------------------------------------------|
F#|-----------------------------------------------------------------------------|
C#|-0--0--0----0--0--0--7--7--7--0--0--0-----0--0--0--7--7--7--9-9-9-9-9-9-9-9--|
G#|-0--0--0----0--0--0--5--5--5--0--0--0-----0--0--0--5--5--5--9-9-9-9-9-9-9-9--|
C#|-0--0--0----0--0--0--5--5--4--0--0--0-----0--0--0--5--5--4--9-9-9-9-9-9-9-9--|

D#|-------------------------------------------------------------------------------------|
A#|-------------------------------------------------------------------------------------|
F#|----------------------------------------------------------------------------------7--|
C#|-2-2-2-2-2-2-2-2--0--0--0-----0--0--0--7--7--7---9-9-9-9-9-9-9-9--0--0--0---0--0-----|
G#|-2-2-2-2-2-2-2-2--0--0--0-----0--0--0--5--5--5---9-9-9-9-9-9-9-9--0--0--0---0--0-----|
C#|-2-2-2-2-2-2-2-2--0--0--0-----0--0--0--5--5--4---9-9-9-9-9-9-9-9--0--0--0---0--0-----|

[Chorus]
D#|---------------------------------------------------------------------------|
A#|---------------------------------------------------------------------------|
F#|---------------------------------------------------------------------------|
C#|-0-0-0-0-0-0-0-0--4-4-4-4-4-4-4-4--9-9-9-9-9-9-9-9--7-7-7-7-7-7-7-7--------|
G#|-0-0-0-0-0-0-0-0--5-5-5-5-5-5-5-5--9-9-9-9-9-9-9-9--5-5-5-5-5-5-5-5--------|
C#|-0-0-0-0-0-0-0-0--4-4-4-4-4-4-4-4--9-9-9-9-9-9-9-9--5-5-5-5-5-5-5-5--------|

D#|---------------------------------------------------------------------------|
A#|---------------------------------------------------------------------------|
F#|---------------------------------------------------------------------------|
C#|-0-0-0-0-0-0-0-0--4-4-4-4-4-4-4-4--9-9-9-9-9-9-9-9--7----------------------|
G#|-0-0-0-0-0-0-0-0--5-5-5-5-5-5-5-5--9-9-9-9-9-9-9-9--5----------------------|
C#|-0-0-0-0-0-0-0-0--4-4-4-4-4-4-4-4--9-9-9-9-9-9-9-9--5----------------------|

D#|---------------------------------------------------------------------------|
A#|---------------------------------------------------------------------------|
F#|------------------6-6-6-6-6-6-6-6------------------------------------------|
C#|-0-0-0-0-0-0-0-0--7-7-7-7-7-7-7-7--9-9-9-9-9-9-9-9-------------------------|
G#|-0-0-0-0-0-0-0-0--4-4-4-4-4-4-4-4--9-9-9-9-9-9-9-9---------5--4------------|
C#|-0-0-0-0-0-0-0-0-------------------9-9-9-9-9-9-9-9---5/7----------5b6------|

D#|---------------------------------------------------------------------------|
A#|---------------------------------------------------------------------------|
F#|------------------6-6-6-6-6-6-6-6------------------------------------------|
C#|-0-0-0-0-0-0-0-0--7-7-7-7-7-7-7-7--9-9-9-9-9-9-9-9-------------------------|
G#|-0-0-0-0-0-0-0-0--4-4-4-4-4-4-4-4--9-9-9-9-9-9-9-9---------5--4------------|
C#|-0-0-0-0-0-0-0-0-------------------9-9-9-9-9-9-9-9---5/7----------5b6------|

[Outro]
D#|--------------------------------------------------------------------------------|
A#|--------------------------------------------------------------------------------|
F#|--------------------------------------------------------------------------------|
C#|------0h2/4----4\2p0 ------0h2/4----4\2p0-------0h2/4---4\2p0-----2-4---2/4-0---|
G#|---0---------0-----------0--------0-----------0-------0---------2-----0---------|
C#|-0---------------------0--------------------0-----------------------------------|

D#|--------------------------------------------------------------------------------|
A#|--------------------------------------------------------------------------------|
F#|--------------------------------------------------------------------------------|
C#|------0h2/4----4\2p0 ------0h2/4----4\2p0-------0h2/4---4\2p0-----2-4---2/4-0---|
G#|---0---------0-----------0--------0-----------0-------0---------2-----0---------|
C#|-0---------------------0--------------------0-----------------------------------|

D#|---------------------------------------------------------------------------|
A#|---------------------------------------------------------------------------|
F#|---------------------------------------------------------------------------|
C#|-0--0--0-------0--0--0---7--7--7-------------------------------------------|
G#|-0--0--0-------0--0--0---5--5--5-------------------------------------------|
C#|-0--0--0-------0--0--0---5--5--4-------------------------------------------|


************************************

| h  Hammer-on
| p  Pull-off
| /  Slide up
| \  Slide down
| b  Bend

************************************

            
            
Suggest correction
Creating personal tab
Creating personal tab
You can edit any tab online and save it as your Personal.

You can edit, replace or remove any tab part or add personal notes – all changes will be seen only by you.

Personal tabs can be accessed anytime from any device, even offline.
Learn more »
Give kudos to tab author, rate the tab!
1 2 3 4 5
comments
print report bad tab
guest
You may want to rate the tab now too:
select rating
Wanna post a correction for this tab? Suggest correction