Oops, an error
Loading. Please wait.

Flame Tab

55 views 3 this week
no commentswrite comment
1 2 3 4 5
3 more votes to show rating
add to favorites
launch autoscroll
font size
0
reset
how to read this tab
guitar tuner
Autoscroll
slow
fast
+/-
esc
set tempo
stop
Help us to improve Ultimate-Guitar.com Take our survey!
×
Author
Difficulty
novice
[Intro]
e|------------------------------------------------------------|
B|------------------------------------------------------------|
G|------------------------------------------------------------|
D|---3-4---3-------3-4---3-------3-4---3-------3-4---3--------|
A|-4---------4-x-4---------4-x-4---------4-x-4---------4-x----|
E|------------------------------------------------------------|

[Verse]
e|------------------------------------------------------------|
B|------------------------------------------------------------|
G|------------------------------------------------------------|
D|---3-4---3-------3-4---3-------3-4---3-------3-4---3--------|
A|-4---------4-x-4---------4-x-4---------4-x-4---------4-x----|
E|------------------------------------------------------------|
(x10)

[Post-Chorus]
e|------------------------------------------------------------|
B|-6-------------9-------------10------------7----------------|
G|------------------------------------------------------------|
D|------------------------------------------------------------|
A|------------------------------------------------------------|
E|------------------------------------------------------------|
(x3)

e|------------------------------------------------------------|
B|-6-------------9-------------10------------12---------------|
G|------------------------------------------------------------|
D|------------------------------------------------------------|
A|------------------------------------------------------------|
E|------------------------------------------------------------|

e|------------------------------------------------------------|
B|-14------------14------------14------------14---------------|
G|------------------------------------------------------------|
D|------------------------------------------------------------|
A|------------------------------------------------------------|
E|------------------------------------------------------------|

[Verse]
e|------------------------------------------------------------|
B|------------------------------------------------------------|
G|------------------------------------------------------------|
D|---3-4---3-------3-4---3-------3-4---3-------3-4---3--------|
A|-4---------4-x-4---------4-x-4---------4-x-4---------4-x----|
E|------------------------------------------------------------|
(x3)

[2nd Chorus/Outro]
e|------------------------------------------------------------|
B|-6-------------9-------------10------------7----------------|
G|------------------------------------------------------------|
D|------------------------------------------------------------|
A|------------------------------------------------------------|
E|------------------------------------------------------------|
(x3)

e|------------------------------------------------------------|
B|-6-------------9-------------10------------12---------------|
G|------------------------------------------------------------|
D|------------------------------------------------------------|
A|------------------------------------------------------------|
E|------------------------------------------------------------|

e|------------------------------------------------------------|
B|-14------------14------------14------------14---------------|
G|------------------------------------------------------------|
D|------------------------------------------------------------|
A|------------------------------------------------------------|
E|------------------------------------------------------------|


************************************

| x  Dead note

************************************
Suggest correction
Give kudos to tab author, rate the tab!
1 2 3 4 5
comments
print report bad tab
guest
You may want to rate the tab now too:
select rating
Wanna post a correction for this tab? Suggest correction