Oops, an error
Loading. Please wait.

The Freed Pig Tab

25 views 6 this week
no commentswrite comment
1 2 3 4 5
3 more votes to show rating
add to favorites
launch autoscroll
font size
0
reset
how to read this tab
guitar tuner
Autoscroll
slow
fast
+/-
esc
set tempo
stop
Help us to improve Ultimate-Guitar.com Take our survey!
×
Author
Intro to The Freed Pig - I'll tab the rest out soon but this will do for now.
-Sam


E|--11--11--11--11--11------------8--8--8--8--8-------------------------------------------|
B|-------------------------8--11-----------------11--8------------------------------------|
G|----------------------8-------------------------------8--10--10--10--10--10--10--10--8--|
D|----------------------------------------------------------------------------------------|
A|----------------------------------------------------------------------------------------|
E|----------------------------------------------------------------------------------------|


E|------------------------------|
B|------------------------------|
G|------------------------------|
D|--10--10--10--10--10--10--10--|
A|------------------------------|
E|------------------------------|
Suggest correction
Give kudos to tab author, rate the tab!
1 2 3 4 5
comments
print report bad tab
guest
You may want to rate the tab now too:
select rating
Wanna post a correction for this tab? Suggest correction