Oops, an error
Loading. Please wait.

American Metalhead Tab

version 1
version 1

Whole song

Interactive

4,774 views 1 this week
no commentswrite comment
1 2 3 4 5
excellent!
x 3
add to favorites
launch autoscroll
font size
0
reset
how to read this tab
guitar tuner
Autoscroll
slow
fast
+/-
esc
set tempo
stop
Help us to improve Ultimate-Guitar.com Take our survey!
×
Author
-------------------------------------------------------------------------------
                             AMERICAN METALHEAD - Sebastian Bach
-------------------------------------------------------------------------------
Tabbed by: kipperfan101

Description: this tab is completely by ear and a video from youtube. you still have to 
to the song for the tempo. this song is not 100% accurate and it is tabbed for rhythm 
just thought that i would let you guys know.

Tuning: One Whole Step Down - D,G,C,F,A,D

| /  slide up
| \  slide down
| h  hammer-on
| p  pull-off
| ~  vibrato
| +  harmonic
| x  Mute note
| *  Palm Mute

Intro/Main Riff:
e|--------------------------------------------------------------------|
B|--------------------------------------------------------------------|
G|--------------------------------------------------------------------|
D|--5-----5-------------5-5---5---5-----7-------------0-2-3-----------|
A|--5-----5-------------5-5---5---5-----7-------------0-2-3-----------|
E|----0-0---0-0-0-0-0-0-----7---7---0-0---0-0-0-0-0-0-----------------|x4
      * *   * * * * * *     *   *   * *   * * * * * *
Pre-Verse:
e|---------------|
B|---------------|
G|---------------|
D|-5-----3-------|
A|-5-----3-------|
E|---------------|x1

Verse (next 4 bars are the Verse):
e|--------------------------------------------------------------------|
B|--------------------------------------------------------------------|
G|--------------------------------------------------------------------|
D|-0-2---2---2-----2-5---5---5-----5-7---7---7-----7-8-7-5-7----------|
A|-0-2---2---2-----2-5---5---5-----5-7---7---7-----7-8-7-5-7----------|
E|-----0---0---0-0-----0---0---0-0-----0---0---0-0--------------------|x1
       *   *   * *     *   *   * *     *   *   * *

e|--------------------------------------------------------------------|
B|--------------------------------------------------------------------|
G|--------------------------------------------------------------------|
D|-0-2---2---2-----2-5---5---5-----5-7---7---7-----7-8-7-5-9----------|
A|-0-2---2---2-----2-5---5---5-----5-7---7---7-----7-8-7-5-9----------|
E|-----0---0---0-0-----0---0---0-0-----0---0---0-0--------------------|x1
       *   *   * *     *   *   * *     *   *   * *

e|--------------------------------------------------------------------|
B|--------------------------------------------------------------------|
G|--------------------------------------------------------------------|
D|-0-2---2---2-----2-5---5---5-----5-7---7---7-----7-8-7-5-7----------|
A|-0-2---2---2-----2-5---5---5-----5-7---7---7-----7-8-7-5-7----------|
E|-----0---0---0-0-----0---0---0-0-----0---0---0-0--------------------|x1
       *   *   * *     *   *   * *     *   *   * *

e|--------------------------------------------------------------------|
B|--------------------------------------------------------------------|
G|--------------------------------------------------------------------|
D|-0-2---2---2-----2-5---5---5-----5-7---7---7-----7-8-7-5-9----------|
A|-0-2---2---2-----2-5---5---5-----5-7---7---7-----7-8-7-5-9----------|
E|-----0---0---0-0-----0---0---0-0-----0---0---0-0--------------------|x1
       *   *   * *     *   *   * *     *   *   * *
Pre-Chorus:
e|---------------------------------|
B|---------------------------------|
G|---------------------------------|
D|-2-------------------------------|
A|-2-------3-------5-------7-------|
E|---------1-------3-------5-------|x2

Chorus (next 2 bars):
e|--------------------------------------------------------------------|
B|--------------------------------------------------------------------|
G|--------------------------------------------------------------------|
D|--------------------------------------------------------------------|
A|-9-8--3-5--9-8--2-2-2-2-2-2---9-8--3-5--3-5--2-2-2-2-2-2------------|
E|-7-6--1-3--7-6--0-0-0-0-0-0---7-6--1-3--1-3--0-0-0-0-0-0------------|x1
                  * * * * * *                  * * * * * *
e|--------------------------------------------------------------------|
B|--------------------------------------------------------------------|
G|--------------------------------------------------------------------|
D|--------------------------------------------------------------------|
A|-9-8--3-5--9-8--2-2-2-2-2-2---9-8--3-5--5-3--2-2-2-2-2-2------------|
E|-7-6--1-3--7-6--0-0-0-0-0-0---7-6--1-3--3-1--0-0-0-0-0-0------------|x1
                  * * * * * *                  * * * * * *

e|----------|
B|----------|
G|----------|
D|--5-------|
A|--3-------|
E|----------|x1

e|--------------------------------------------------------------------|
B|--------------------------------------------------------------------|
G|--------------------------------------------------------------------|
D|--5-----5-------------5-5---5---5-----7-------------0-2-3-----------|
A|--5-----5-------------5-5---5---5-----7-------------0-2-3-----------|
E|----0-0---0-0-0-0-0-0-----7---7---0-0---0-0-0-0-0-0-----------------|x2
      * *   * * * * * *     *   *   * *   * * * * * *

e|-----------------|
B|-----------------|
G|-----------------|
D|-5-------3-------|
A|-5-------3-------|
E|-----------------|x1

e|--------------------------------------------------------------------|
B|--------------------------------------------------------------------|
G|--------------------------------------------------------------------|
D|-0-2---2---2-----2-5---5---5----5-7---7---7-----7-8-7-5-7-8-9-------|
A|-0-2---2---2-----2-5---5---5----5-7---7---7-----7-8-7-5-7-8-9-------|
E|-----0---0---0-0-----0---0---0-0----0---0---0-0---------------------|x2
       *   *   * *     *   *   * *    *   *   * *
e|-------------------------|
B|-------------------------|
G|-------------------------|
D|-------------------------|
A|-7-------5-------3-------|
E|-5--000--3--000--1--000--|x1
      ***     ***     ***

e|---------------------------------|
B|---------------------------------|
G|---------------------------------|
D|-2-------------------------------|
A|-2-------3-------5-------7-------|
E|---------1-------3-------5-------|x2

e|--------------------------------------------------------------------|
B|--------------------------------------------------------------------|
G|--------------------------------------------------------------------|
D|--------------------------------------------------------------------|
A|-9-8--3-5--9-8--2-2-2-2-2-2---9-8--3-5--3-5--2-2-2-2-2-2------------|
E|-7-6--1-3--7-6--0-0-0-0-0-0---7-6--1-3--1-3--0-0-0-0-0-0------------|x1
                  * * * * * *                  * * * * * *
e|--------------------------------------------------------------------|
B|--------------------------------------------------------------------|
G|--------------------------------------------------------------------|
D|--------------------------------------------------------------------|
A|-9-8--3-5--9-8--2-2-2-2-2-2---9-8--3-5--5-3--2-2-2-2-2-2------------|
E|-7-6--1-3--7-6--0-0-0-0-0-0---7-6--1-3--3-1--0-0-0-0-0-0------------|x1
                  * * * * * *                  * * * * * *
Rhythm Solo [this part is played during the solo (next 2 bars)]:
e|---------------------------------------------------------------------------|
B|---------------------------------------------------------------------------|
G|---------------------------------------------------------------------------|
D|-5-------------5-7-------------7-9------------7-9-------------9-10-10-10-9-|
A|-3-------------3-5-------------5-7------------5-7-------------7-8--8--8--7-|
E|---0-0-0-0-0-0-----0-0-0-0-0-0----0-0-0-0-0-0-----0-0-0-0-0-0--------------|x3
     * * * * * *     * * * * * *    * * * * * *     * * * * * *

e|--------------------------------------------------------------|
B|--------------------------------------------------------------|
G|--------------------------------------------------------------|
D|-5-------------5-7-------------7-9------------7-9-------------| end solo
A|-3-------------3-5-------------5-7------------5-7-------------|
E|---0-0-0-0-0-0-----0-0-0-0-0-0----0-0-0-0-0-0-----0-0-0-0-0-0-|x1
     * * * * * *     * * * * * *    * * * * * *     * * * * * *
Outro:
e|--------------------------------------------------------------------|
B|--------------------------------------------------------------------|
G|--------------------------------------------------------------------|
D|--------------------------------------------------------------------|
A|-9-8--3-5--9-8--2-2-2-2-2-2---9-8--3-5--3-5--2-2-2-2-2-2------------|
E|-7-6--1-3--7-6--0-0-0-0-0-0---7-6--1-3--1-3--0-0-0-0-0-0------------|x5
                  * * * * * *                  * * * * * *

e|-----------------------------------|
B|-----------------------------------|
G|-----------------------------------|
D|-----------------------------------|
A|-9-8--3-5--9-8---------------------|
E|-7-6--1-3--7-6--000000000000000----|x1

e|-----------------|
B|-----------------|
G|-----------------|
D|-----------------|
A|-9-8--3-5--5-2---|
E|-7-6--1-3--3-0---|x1
Suggest correction new What's this?
You can suggest a correction to this tab. Community and Mods will review your correction and vote to approve or reject it.
comments
We did not receive enough feedback on this tab! Please rate:
print report bad tab
1 2 3 4 5
guest
You may want to rate the tab now too:
select rating
Please do not post tabs as comments. Select "correction" instead!