Oops, an error
Loading. Please wait.

By Your Side Tab

version 1
version 1

Whole song

12,982 views 9 this week
3 commentsread comments
1 2 3 4 5
accurate
x 3
add to favorites
launch autoscroll
font size
0
reset
how to read this tab
guitar tuner
Autoscroll
slow
fast
+/-
esc
set tempo
stop
Help us to improve Ultimate-Guitar.com Take our survey!
×
Difficulty
intermediate
I'm pretty sure it's 95% right.


|-----0--4--0--2--0-----0--------0--------0-----0|
|--2-----------------2-----2--2-----2--2-----2---|
|------------------------------------------------|------|
|------------------------------------------------|      |
|--4--4--4--4--4--4--4--4--4--4--4--4--4--4--4--4|      |
|------------------------------------------------|      |
                                                        |--------x2
                                                        |
|-----0--4--0--2--0-----0--------0---------------|      |
|--2-----------------2-----2--2-----2--0--0--4--0|      |
|------------------------------------------------|------|
|------------------------------------------------|
|--4--4--4--4--4--4--4--4--4--4--4--4--2--2--2--2|
|------------------------------------------------|


|------------------------------------------------|
|--------2--------2--------2--------2--------2---|
|------------------------------------------------|
|-----4--------4--------4--------4--------4------|
|--4--------4--------4--------4--------4--------4|
|------------------------------------------------|
                                                      Play this on the
                                                      verses x4
|------------------------------------------------|
|--------5--------5--------5--------5--------5---|
|------------------------------------------------|
|-----7--------7--------7--------7--------7------|
|--7--------7--------7--------7--------7--------7|
|------------------------------------------------|


Chorus:

|--------------------------|
|--------------------------|
|--1--4--6-----1-----6-----|
|--2--4--6--7--2--6--6--7--|       Listen to song for exact timings
|--2--2--4--7--2--6--4--7--|
|--0--------5--0--4-----5--|


Solo:

|------------------------------------------------|
|--121212/10--101010/9--999/7--777/5/12----------|
|------------------------------------------------|
|------------------------------------------------|
|------------------------------------------------|
|------------------------------------------------|


|----------------------------------------------------------------|
|--121212/10--101010/9--999/7--7775757/97/9--8/98/98/98/95--7--55|---Let
|----------------------------------------------------------------|   this
|----------------------------------------------------------------|   last
|----------------------------------------------------------------|   note
|----------------------------------------------------------------|   ring


Pre chorus:

|----------------------|
|----------------------|
|-----4-----------4----|
|--4--4--6--9--4--4--7-|     Then just go on with the rest of the 2 choruses
|--4--2--6--9--4--2--7-|     till the end of the song.
|--2-----4--7--2-----5-|


Enjoy!
Suggest correction
Give kudos to tab author, rate the tab!
1 2 3 4 5
comments
print report bad tab
3 comments total.
0 reply
Mr.Kool 10 wrote on March 22 2008, 11:00 pm

not bad at all..i think the solo is a bit off..i've been waiting for a tab for this since i heard it live last year..thanx:D

0 reply
rosew/100thorns 10 wrote on February 3 2009, 03:52 pm

good job :) liked it

+1 reply
jeffduchon121 10 wrote on April 10 2009, 09:28 am

good intro the verse and choruses didn;t sound right at all though

guest
You may want to rate the tab now too:
select rating
Wanna post a correction for this tab? Suggest correction