Oops, an error
Loading. Please wait.

Falling Into You tab

version 1
version 1

Whole song

Interactive

1,095 views 1 this week
no commentswrite comment
1 2 3 4 5
2 more votes to show rating
add to favorites
×
Save as Personal and add changes to this tab that will be seen only by you. Learn more ›
×
You can save this tab as Personal to edit and correct it or add notes. All changes will be seen only by you. Learn more »
launch autoscroll
font size
0
reset
how to read this tab
guitar tuner
edit
Autoscroll
slow
fast
+/-
esc
set tempo
stop
Author
Falling Into You - Sebastian Bach (Angel Down)

Amazing song written by Sebastian Bach and Desmond Child


Tuning: E Standard

I have put an easier chord version at the bottom


[Intro]

There are two guitars in the intro at the same time playing harmonies

Guitar 1
e|----------8-------8-------8--8br-----------8-------8--11br-8---|
B|---9--11-----9-11----9-11---------11--9-11----9-11-------------|
G|---------------------------------------------------------------|
D|---------------------------------------------------------------|
A|---------------------------------------------------------------|
E|---------------------------------------------------------------|

e|---16---16-18-15---15-16-----|
B|-------------------------18--|
G|-----------------------------|
D|-----------------------------|
A|-----------------------------|
E|-----------------------------|

Guitar 2
e|-------------------------------------------------------------------|
B|------8--9-----8-9-----8-9--9br-8-----8-10----8-9----8-9--11br-8---|
G|--10--------10------10-------------10------10-----10---------------|
D|-------------------------------------------------------------------|
A|-------------------------------------------------------------------|
E|-------------------------------------------------------------------|

e|---13---13-15-11---11-13-----|
B|-------------------------14--|
G|-----------------------------|
D|-----------------------------|
A|-----------------------------|
E|-----------------------------|

The piano and bass are playing over these chords in the intro:
Fm, Db, Eb, C
F, Db, Eb, C
Fm, Eb, Dbadd9


[Verse]
Mostly piano in the verse but here are the chords

       Cm
Here I am
 Bb              Ab
Slippin' back in time
 Gm             Fm
Starin' in your eyes
 Eb               Db
Like it's all the same
        Cm
Look at you
    Bb                 Ab 
You haven't changed at all
    Gm          Fm
The devil's deja vu
     Eb
Has lead me down
   Db             C
& back into this deadly fall


the guitar joins in with powerchord 
for the last 2 chords (Db and C)


[Chorus]

e|------------------------------------|
B|------------------------------------|
G|-------6---8---5--------6---8---5---|
D|---3---6---8---5----3---6---8---5---|
A|---3---4---6---3----3---4---6---3---|
E|---1----------------1---------------|

e|--------------------------------|
B|--------------------------------|
G|-------6---8---5----10--8---6---|
D|---3---6---8---5----10--8---6---|
A|---3---4---6---3----8---6---4---|
E|---1----------------------------|


[Solo Rhythm Guitar]
just like the chorus except for the last part

e|------------------------------------|
B|------------------------------------|
G|-------6---8---5--------6---8---5---|
D|---3---6---8---5----3---6---8---5---|
A|---3---4---6---3----3---4---6---3---|
E|---1----------------1---------------|

e|------------------------------------|
B|------------------------------------|
G|-------6---8---5--------6---8---8---|
D|---3---6---8---5----3---6---8---8---|
A|---3---4---6---3----3---4---6---6---|
E|---1----------------1---------------|


[Solo]

e|----------------------------------------------------------------|
B|---16b----16pb~~--16pbr------16---------16----------------------|
G|-------------------------------15b------15b----15pbr-15b-15b----|
D|----------------------------------------------------------------|
A|----------------------------------------------------------------|
E|----------------------------------------------------------------|

e|----------15b-15b-13-16b----16--18b-18pb--18pbr----|
B|---16b---------------------------------------------|
G|---------------------------------------------------|
D|---------------------------------------------------|
A|---------------------------------------------------|
E|---------------------------------------------------|

e|---18-16-18-18~-16-18-16-18-18~--16-18--16-18b--18pb--------------------|
B|------------------------------------------------------------------------|
G|-------------------------------------------------------------6p5--------|
D|-------------------------------------------------------10*-------8-6----|
A|------------------------------------------------------------------------|
E|------------------------------------------------------------------------|
                                              dive bomb*

[Bridge]

e|----------------------------------------------|
B|----------------------------------------------|
G|---6-6-6-6-6-----8-8-8-8-8-----10-----8--6----|
D|---6-6-6-6-6-----8-8-8-8-8-----10-----8--6----|
A|---4-4-4-4-4-----6-6-6-6-6-----8------6--4----|
E|----------------------------------------------|

e|--------------------------------------------------|
B|--------------------------------------------------|
G|---8-8-8-8-8-----6-6-6-6-6-----8-8-8-8-8-8-8-8----|
D|---8-8-8-8-8-----6-6-6-6-6-----8-8-8-8-8-8-8-8----|
A|---6-6-6-6-6-----4-4-4-4-4-----6-6-6-6-6-6-6-6----|
E|--------------------------------------------------|


the piano ending would be something like this on guitar
e|-------------------------------------|
B|-------------------------------------|
G|-------8-----8---------8-----8-------|
D|---5h6---5h6---5h6-5h6---5h6---5h6---|
A|---4---------------4-----------6-----|
E|-------------------------------------|


| /   slide up
| \   slide down
| h   hammer-on
| p   pull-off
| ~   vibrato
| +   harmonic
| x   Mute note
| b   Bend
| pb  Pre-bend
| br  Bend release
| pbr Pre-bend release
| brb Bend release bend


==Easier chord version==

Capo 1 fret!

C, D
Em, C, D, B
Em, C, D, B
Em, D, C

       Bm
Here I am
  A              G
Slippin' back in time
 F#m             Em
Starin' in your eyes
 D                C
Like it's all the same
        Bm
Look at you
     A                 G 
You haven't changed at all
    F#m         Em
The devil's deja vu
     D
Has lead me down
   C             B
& back into this deadly fall


    Em
You take me
C
Break me
D              B
Build me up & then forsake me
Em      C
Our love is my world
D                Bm
Then you cut me down with one word
Em         C
Strung out, it's true
D                   B          Em  D  C
Try to run but I'm falling into you
(C)
You're the devil's deja vu


Bring it on
Bend my will again
Undress the story's end
& make this heart believe
There's a light
In the darkness of my mind
Hangin' by a thread
Like a spider
Spinnin' out a brand new web

You take me
Break me
Build me up & then forsake me
Our love is my world
Then you cut me down with one word
Strung out, it's true
Try to run but I'm falling into you

Solo:
Em, C, D, B x3
then:
Em, C, D

C
Think about me
D
Our love is your salvation
Em            D
Taste my mind
C
Give in to all temptation
D
Embrace complete destruction
C             D
Wait wait wait wait wait wait


Chorus x2

            
            
Suggest correction
Creating personal tab
Creating personal tab
You can edit any tab online and save it as your Personal.

You can edit, replace or remove any tab part or add personal notes – all changes will be seen only by you.

Personal tabs can be accessed anytime from any device, even offline.
Learn more »
Give kudos to tab author, rate the tab!
1 2 3 4 5
comments
print report bad tab
guest
You may want to rate the tab now too:
select rating
Wanna post a correction for this tab? Suggest correction