Oops, an error
Loading. Please wait.

Love Is A Bitchslap Bass Tab

version 1
version 1

Whole song

Interactive

1,291 views 1 this week
no commentswrite comment
1 2 3 4 5
please rate
add to favorites
launch autoscroll
font size
0
reset
guitar tuner
Autoscroll
slow
fast
+/-
esc
set tempo
stop
Help us to improve Ultimate-Guitar.com Take our survey!
×
Author
Main Riff/Verse/Pre-Chorus (x12)

G|-----------------------------------|
D|-----------------------------------|
A|--------------1-1--1-3-3-4-3-1-----|
E|-3-3-1-3-3-1-3---3-----------------|

Chorus 
                            
G|-------------------8-6---------|------------------------------|
D|-----------------------8-6-----|------------------------------|
A|----------------6----------8-6-|-3--3-3-3-3-3-3-3-4-4-4-4-3-1-| 
E|-3--3-3-3-3-1-3----------------|------------------------------|

G|-------------------8-6---------|------------------|
D|-----------------------8-6-----|------------------|
A|----------------6----------8-6-|-3--3-3-3-3-3-3-3-|
E|-3--3-3-3-3-1-3----------------|------------------|

G|-------------------------|
D|-------------------------|
A|-4-4--4-4--4-4--4--4-3-1-| 
E|-------------------------|

Repeat all over again, then:

Main Riff (x4)

G|-----------------------------------|
D|-----------------------------------|
A|--------------1-1--1-3-3-4-3-1-----|
E|-3-3-1-3-3-1-3---3-----------------|

Bridge (x4)

G|--------------------------------|--------------------------------|
D|--------------------------------|--------------------------------|
A|-5-5-3-5-5-3--------------------|-5-5-3-5-5-3--------------------|
E|-------------3-1--1-1-1-1-1-1-1-|-------------3-1--1-1-1-1-4-3-1-|

G|--------------------------------|--------------------------------|
D|--------------------------------|--------------------------------|
A|-5-5-3-5-5-3--------------------|-5-5-3-5-5-3--------------------|
E|-------------3-1--1-1-1-1-1-1-1-|-------------3-1--1-1--1-1-1--1-|

Bridge End

G|-------------------------|
D|-------------------------|
A|-4-4--4-4--4-4--4--4-3-1-| 
E|-------------------------|

Chorus (x3)
                            
G|-------------------8-6---------|------------------------------|
D|-----------------------8-6-----|------------------------------|
A|----------------6----------8-6-|-3--3-3-3-3-3-3-3-4-4-4-4-3-1-| 
E|-3--3-3-3-3-1-3----------------|------------------------------|

4th Time, play this

G|-------------------8-6---------|------------------|
D|-----------------------8-6-----|------------------|
A|----------------6----------8-6-|-3--3-3-3-3-3-3-3-|
E|-3--3-3-3-3-1-3----------------|------------------|

G|--------------------------|--------------------------|
D|--------------------------|--------------------------|
A|-4-4--4-4--4-4--4--4-3-1--|-4-4--4-4--4-4--4--4-3-1--|
E|-------------------------3|-------------------------3| (let ring)

G|-------------|
D|-------------|
A|-------------|
E|------------3| (End)

"Chew On That!"




Suggest correction
What's this?
You can suggest a correction to this tab. Community and Mods will review your correction and vote to approve or reject it.
comments
We did not receive enough feedback on this tab! Please rate:
print report bad tab
1 2 3 4 5
guest
You may want to rate the tab now too:
select rating
Please do not post tabs as comments. Select "correction" instead!