Oops, an error
Loading. Please wait.

Stuck Inside Tab

version 1
version 1

Whole song

295 views 1 this week
no commentswrite comment
1 2 3 4 5
please rate
add to favorites
launch autoscroll
font size
0
reset
how to read this tab
guitar tuner
Autoscroll
slow
fast
+/-
esc
set tempo
stop
Help us to improve Ultimate-Guitar.com Take our survey!
×
Contributor
Tuning
crizzy218 1,015
D A D G B E
Stuck Inside - Sebastian Bach (Angel Down)

Tuning: Drop D

Intro:
                                                            [--Harmonic--]
E-------------------------------------------------------------------------|
B-------------------------------------------------------------------------|
G-------------------------------------------------------------------------|
D--0-2-3-5-3-2-0-2-3-2-0-3-2-0-2-3--0-2-3-5-3-2-0-2-3-2-0-2---------------|
A--0-2-3-5-3-2-0-2-3-2-0-3-2-0-2-3--0-2-3-5-3-2-0-2-3-2-0-2---------------|
E--0-2-3-5-3-2-0-2-3-2-0-3-2-0-2-3--0-2-3-5-3-2-0-2-3-2-0-2--3-3-4-4-5-5--|

E------------------------------------------------------------|
B------------------------------------------------------------|
G------------------------------------------------------------|
D--0-2-3-5-3-2-0-2-3-2-0-3-2-0-2-3--0-2-3-5-3-2-0-2-3-2-0-2--|
A--0-2-3-5-3-2-0-2-3-2-0-3-2-0-2-3--0-2-3-5-3-2-0-2-3-2-0-2--|
E--0-2-3-5-3-2-0-2-3-2-0-3-2-0-2-3--0-2-3-5-3-2-0-2-3-2-0-2--|

Then you play the same thing again only that this time you plam mute the whole thing

Verse:

Just repeat this section the whole verse
E--0-------------------------|
B--5----------5--------------|
G--4--------------4----------|
D--2------2-----------2------|
A----------------------------|
E----------------------------|

Chorus:

                                                            [--Harmonic--]
E-------------------------------------------------------------------------|
B-------------------------------------------------------------------------|
G-------------------------------------------------------------------------|
D--0-2-3-5-3-2-0-2-3-2-0-3-2-0-2-3--0-2-3-5-3-2-0-2-3-2-0-2---------------|
A--0-2-3-5-3-2-0-2-3-2-0-3-2-0-2-3--0-2-3-5-3-2-0-2-3-2-0-2---------------|
E--0-2-3-5-3-2-0-2-3-2-0-3-2-0-2-3--0-2-3-5-3-2-0-2-3-2-0-2--3-3-4-4-5-5--|

E------------------------------------------------------------|
B------------------------------------------------------------|
G------------------------------------------------------------|
D--0-2-3-5-3-2-0-2-3-2-0-3-2-0-2-3--0-2-3-5-3-2-0-2-3-2-0-2--|
A--0-2-3-5-3-2-0-2-3-2-0-3-2-0-2-3--0-2-3-5-3-2-0-2-3-2-0-2--|
E--0-2-3-5-3-2-0-2-3-2-0-3-2-0-2-3--0-2-3-5-3-2-0-2-3-2-0-2--|

Then you play the same thing again only that this time you plam mute the whole thing

Bridge:

The notes on 7th fret on the G string are Pinch-Harmonics
E--3------------------------------------------------|
B--6------------------------------------------------|
G--5----------------11-------11--------11-------11--|
D--3------------------------------------------------|
A-------------0-0-0----0-0-0-----0-0-0----0-0-0-----|
E-------------0-0-0----0-0-0-----0-0-0----0-0-0-----| x4

                  Now i...                                   No i said it's over!
E--3-------------------------------------------------------------|
B--6-------------------------------------------------------------|
G--5-------------------------------------------------------------|
D--3----0-2-3-0-2-3-----0-2-3-0-2-3---0-2-3-0-2---0-2-3-0-2-0----|
A-------0-2-3-0-2-3-----0-2-3-0-2-3---0-2-3-0-2---0-2-3-0-2-0----|
E-------0-2-3-0-2-3-----0-2-3-0-2-3---0-2-3-0-2---0-2-3-0-2-0----|
comments
We did not receive enough feedback on this tab! Please rate:
print report bad tab
1 2 3 4 5
I want to post or [tab]
guest
You may want to rate the tab now too:
select rating
Please do not post tabs as comments. Select "correction" instead!