Oops, an error
Loading. Please wait.

Calling Lose My Mind Tab

14,648 views 6 this week
1 commentread comment
1 2 3 4 5
excellent!
x 5
add to favorites
launch autoscroll
font size
0
reset
how to read this tab
guitar tuner
Autoscroll
slow
fast
+/-
esc
set tempo
stop
Help us to improve Ultimate-Guitar.com Take our survey!
×
          Sebastian Ingrosso and Alesso (feat. Ryan Tedder) 
                   --- "Calling (Lose My Mind)" ---

Sebastian Ingrosso's Beatport page:
http://www.beatport.com/artist/sebastian-ingrosso/6611

Sebastian Ingrosso's Facebook page:
https://www.facebook.com/therealingrosso


Alesso's Beatport page:
http://www.beatport.com/artist/alesso/136838

Alesso's Facebook page:
https://www.facebook.com/AlessoOfficial



Here's the main riff you hear throughout the song:

e|-------------------------------------------------------------|
B|-------------------------9-10-9-----------9-10-12------------|
G|-9-9-9--11---9-9-9--11----------11-9--9-11--------9~--11-----|
D|----------11----------11--------------------------------11---|
A|-------------------------------------------------------------|
E|-------------------------------------------------------------|

And here's the intro/ending sound (repeat as necessary):

e|--------------------------------------|
B|--------------------------------------|
G|-8h9-9-9-9-9---8h9-9-9-9-9---8h9-9-9--|
D|--------------------------------------|
A|--------------------------------------|
E|--------------------------------------|
Suggest correction
comments
print report bad tab
1 comment total.
0 reply
Bobben 10 wrote on November 20 2013, 12:09 pm

This is not a correction, but since UG don't want tabs in comments I though I'd share a transponated version of it in a lower pitch.

|----------------|----------------|4-5-4-----------|3-4-7-----------|----------------|
|5---5---5---7---|5---5---5---7---|------7-5---5-7-|------5-----7---|----------------|
|--------------6-|--------------6-|----------------|--------------6-|----------------|
|----------------|----------------|----------------|----------------|----------------|
|----------------|----------------|----------------|----------------|----------------|
|----------------|----------------|----------------|----------------|----------------|

guest
You may want to rate the tab now too:
select rating
Please do not post tabs as comments. Select "correction" instead!