Oops, an error
Loading. Please wait.

La Luna Y El Sol Tab

23 views 1 this week
no commentswrite comment
1 2 3 4 5
3 more votes to show rating
add to favorites
launch autoscroll
font size
0
reset
how to read this tab
guitar tuner
×
Best way to learn
"La Luna Y El Sol"
Autoscroll
slow
fast
+/-
esc
set tempo
stop
    =INTRO= 

   C Am C Am

       C                             Am
 e|----------------------------------------------|
 b|---8-8-----------8-8----------------------10--|
 g|-7-----9-9-9/7-7-----9-9-9/7--7-5-7-5---5-----|
 d|--------------------------------------7-------|
 a|----------------------------------------------|
 E|----------------------------------------------|


        F                                      G
 e|----------------------------------------------------------|
 b|----10-10---------------10-10---------------15-13-12---12-|
 g|-10-------10-10-10/9-10-------10-10-10/9--9----------7----|
 d|----------------------------------------------------------|
 a|----------------------------------------------------------|
 E|----------------------------------------------------------|

  Esta intro va por dos veces

  =letra=

          C            Am
 ay, ay, ay porque lloro por vos
         F
 y acaricio tu pelo en las noches
      G
 soñandote.

          C                 Am
 ay, ay, ay  la luna se quiere dormir
        F                                 G
 y el sol estira sus rayos queriendo abrazarla
          C
 para amarla.

 =punteo=

     _______ x2 _____
   / C         Am        F            G        F             G
 e|-----10-8-----------|---------------------------------------------|
 b|---8-----------10-8-|----------------------------------------10-8-|
 g|-9-----------9------|-10(x3)-9-7----7--------10(x3)-9-7----7------|
 d|-----------7--------|------------10---10-9--------------10--------|
 a|--------------------|---------------------------------------------|
 E|--------------------|---------------------------------------------|

              F               G            C   Am
 si yo fuera sol y tu fueras luna yo te amaria
                 F                 G         C  Am
 y en cada eclipse de amor yo te haria solo mia
              F               G            C   Am
 si yo fuera sol y tu fueras luna yo te amaria
                 F                 G         C  Am
 y en cada eclipse de amor yo te haria solo mia


 =INTRO= x2

          C             Am
 ay, ay, ay cuando te vi con el
       F                                   G
 yo pense si tendria sentido el seguir viviendo.
          C                Am
 ay, ay, ay la luna se quiere dormir
       F                                  G
 y el sol estira sus rayos queriendo abrazarla
        C
 para amarla

 =punteo=

              F               G            C   Am
 si yo fuera sol y tu fueras luna yo te amaria
                 F                 G         C  Am
 y en cada eclipse de amor yo te haria solo mia
              F               G            C   Am
 si yo fuera sol y tu fueras luna yo te amaria
                 F                 G
 y en cada eclipse de amor yo te hariaaaaaaaaaaa

 solo mia

 =punteo=

 =Final=

    G                   C
 e|--------------------------|
 b|-10-8---------------------|
 g|------10-9-7---------9----|
 d|-------------10-9-10---10-|
 a|--------------------------|
 E|--------------------------|

  heme aqui pues de nuevo amigos, ahora con sebastian mendoza
 con esta cancion q ta mu wena, cualkier consulta m escriben
 o algo asi, aps un saludo pa todos los lokillos de chue y pa
 los q me conocen y para los que pronto me conoceran...
 ai se ven ;)
Suggest correction
Give kudos to tab author, rate the tab!
1 2 3 4 5
comments
print report bad tab
guest
You may want to rate the tab now too:
select rating
Wanna post a correction for this tab? Suggest correction