Oops, an error
Loading. Please wait.

Tarjetita De Invitacion Tab

39 views 1 this week
no commentswrite comment
1 2 3 4 5
3 more votes to show rating
add to favorites
launch autoscroll
font size
0
reset
how to read this tab
guitar tuner
×
Best way to learn
"Tarjetita De Invitacion"
Autoscroll
slow
fast
+/-
esc
set tempo
stop
 (intro)

   C                                                 G
e|-12--12-10-12-12-10-12-10-12|-12-13-15-15-15-13-12-10-||
B|-13--13-12-13-13-12-13-12-13|-13-15-17-17-17-15-13-12-||
G|----------------------------|-------------------------||
D|----------------------------|-------------------------||
A|----------------------------|-------------------------||
E|----------------------------|-------------------------||

                       Am                       E                      Am
e|-10-12-13-13-13-12-10-8--|-8--10-12-12-12-10-8--7-|-7-8--10-10-10-8--7-8--||
B|-12-13-15-15-15-13-12-10-|-10-12-13-13-13-12-10-9-|-9-10-12-12-12-10-9-10-||
G|-------------------------|------------------------|-----------------------||
D|-------------------------|------------------------|-----------------------||
A|-------------------------|------------------------|-----------------------||
E|-------------------------|------------------------|-----------------------||

(No me sirve si no veo...)

e|-15-14-13-12-||
B|-17-16-15-13-||
G|-------------||
D|-------------||
A|-------------||
E|-------------||

(...palmas arriba!)

   C                                                G
e|-12--12-10-12-12-10-12-10-12|-12-13-15-15-15-13-12-10-||
B|-13--13-12-13-13-12-13-12-13|-13-15-17-17-17-15-13-12-||
G|----------------------------|-------------------------||
D|----------------------------|-------------------------||
A|----------------------------|-------------------------||
E|----------------------------|-------------------------||

                       Am                      E                       Am
e|-10-12-13-13-13-12-10-8--|-8--10-12-12-12-10-8--7-|-7-8--10-10-10-8--7-8--||
B|-12-13-15-15-15-13-12-10-|-10-12-13-13-13-12-10-9-|-9-10-12-12-12-10-9-10-||
G|-------------------------|------------------------|-----------------------||
D|-------------------------|------------------------|-----------------------||
A|-------------------------|------------------------|-----------------------||
E|-------------------------|------------------------|-----------------------||

    C
Hoy temprano al correo fui
                    G
A recoger carta de ti
                       Am
Hace mucho que no escribes
                      E
Yo no se lo que pasara
                        Am
Algo me anuncia el corazón

Riff 1:
e|-15-14-13-12-||
B|-17-16-15-13-||
G|-------------||
D|-------------||
A|-------------||
E|-------------||

   C
Hoy he visto un amigo y
                       G
Me ha contado cosas de ti
                 Am
Una cartita le llego
                     E
Diciendo que te casaras
                      Am
Y que no falte a tu bodaaa...

    Am                              G
e|-------------12-12--------------------------------------||
B|----13----13----------13-----------12----15-15-12-13----||
G|-14----14----------14----14--12-12----12-------------14-||
D|--------------------------------------------------------||     x2
A|--------------------------------------------------------||
E|--------------------------------------------------------||

C                    G
Tarjetita de invitación
                      Am
Prueba prueba de tu traición
       C               G
Cada letra que hay de ti
                    Am
Parte parte mi corazón


(Ahora el teclado hace el mismo punteo anterior, la viola acompaña en Am y G)


C                    G
Tarjetita de invitación
                      Am
Prueba prueba de tu traición
       C               G
Cada letra que hay de ti
                   Am
Parte parte mi corazooooooooooooooooooooon...


________________________________________________________________________________

                   Trascripción por Milton - Copyright 2004
______________________________________________________________________Te quedo?_

 Espero que les sea claro, y bueno...nada.
Suggest correction
Give kudos to tab author, rate the tab!
1 2 3 4 5
comments
print report bad tab
guest
You may want to rate the tab now too:
select rating
Wanna post a correction for this tab? Suggest correction