Oops, an error
Loading. Please wait.

Tenemos Que Charlar Tab

13 views 1 this week
no commentswrite comment
1 2 3 4 5
3 more votes to show rating
add to favorites
launch autoscroll
font size
0
reset
how to read this tab
guitar tuner
Autoscroll
slow
fast
+/-
esc
set tempo
stop
Help us to improve Ultimate-Guitar.com Take our survey!
×
Buenoo aca les dejo este tema que me gusta mucho esta perfecto:D


SOL                         RE
   creo que tenemos que charlar
                          SI
quiero que me digas la verdad
              DO
porque me haces mal
SOL                      RE
   si ya no te sirvo matame
                       SI
pero no confundas el amor
                      DO
con una estupida obsecion
         SOL          RE
si ya no soy tu gran amor
         DO     RE
mejor me voy... oh


Punteo:

1---7--8--7------7--8--8--7------------
2---8--8--8------8--8--8--8------------
3--------------------------------------
4--------------------------------------
5--------------------------------------
6--------------------------------------(x4)

Si quieren pueden hacer esto en la parte de el teclado:

1--------------------------------------------------------------
2-----7---10--8-7-5/5/5/5--------7---12--10--12--13/13/13--12--10---
3---7---7-------------------7---7------------------------------
4--------------------------------------------------------------
5--------------------------------------------------------------
6--------------------------------------------------------------

Y si no les sale el punteo solamente acompañenlo con estos acordes:

Guitarra: sol,mim
Teclado: re,do

SOL                         RE
   creo que tenemos que charlar
                          SI
quiero que me digas la verdad
              DO
porque me haces mal
SOL                      RE
   y no me parece muy normal
                           SI
siempre que te llamo te negas
                     DO
y si te busco nunca estas


SOL                      RE
   si ya no te sirvo matame
                       SI
pero no confundas el amor
                      DO
con una estupida obsecion
SOL                    RE
   hacete valer como mujer
                         SI
yo te quiero mucho vos sabes
                   DO
pero conmigo no jugues

         SOL          RE
si ya no soy tu gran amor
         DO     RE   MIm
mejor me voy... oh

        RE-MIm
no aguanto mas, andate
                     RE
no vuelvas dejame en paz
                             DO
porque tus mentiras me hacen mal
                  SOL   RE
prefiero quedarme solo, solo...


·esperoo que les guste aguante la cumbiaa!
Suggest correction
Give kudos to tab author, rate the tab!
1 2 3 4 5
comments
print report bad tab
guest
You may want to rate the tab now too:
select rating
Wanna post a correction for this tab? Suggest correction