Oops, an error
Loading. Please wait.

Veni Baila Tab

13 views 1 this week
no commentswrite comment
1 2 3 4 5
3 more votes to show rating
add to favorites
launch autoscroll
font size
0
reset
how to read this tab
guitar tuner
Autoscroll
slow
fast
+/-
esc
set tempo
stop
Help us to improve Ultimate-Guitar.com Take our survey!
×
intro:
(punteo 1)

E|-12-12--14-14-|-10--12-10-12-10-12-|-12-12--14-14---------||-12-12--------
B|-12-12--12-12-|-10--10-10-10-10-10-|-12-12--12-12---------||-15-14--------
G|-12-12--12-12-|-11--11-11-11-10-11-|-12-12--12-12----(x4)-||--------------
D|--------------|--------------------|----------------------||--------------
A|--------------|--------------------|----------------------||--------------
E|--------------|--------------------|----------------------||--------------
(punteo 2)

E|-12/15-12/15-12/15-12/15-----------------------||
B|-------------------------12/15-12/15-----------||
G|--------------------------------------14-13----||(x4)
D|-----------------------------------------------||
A|-----------------------------------------------||
E|-----------------------------------------------||
(punteo 3)

E|-9/13-9/13-9/13-9/13-----9-9-------------|-------------------||
B|------------------------9-9--------------|-----------12------||
G|------------------------------11-10------|-----------12------||
D|-------------------------------------(x2)|-12-12>14----------||(punteo 1)
A|-----------------------------------------|-------------------||
E|-----------------------------------------|-------------------||
cancion:


veni baila,
D
ponete a delirar
Em
veni move
D
la noche a reventar
Em
veni senti,
D
mi cumbia pupolar
Em
portate mal
D                       D
la bomba va a explotar
(repite)

E|--12--15-14-12-
B|-12------------

(punteo 2x4)

(punteo 3x4)
                (depues todo de nuevo)


Espero que les salga suerte!!!
Suggest correction
Give kudos to tab author, rate the tab!
1 2 3 4 5
comments
print report bad tab
guest
You may want to rate the tab now too:
select rating
Wanna post a correction for this tab? Suggest correction