Oops, an error
Loading. Please wait.

Bajo Tus Alas Tab

5 views 1 this week
no commentswrite comment
1 2 3 4 5
3 more votes to show rating
add to favorites
launch autoscroll
font size
0
reset
how to read this tab
guitar tuner
×
Best way to learn
"Bajo Tus Alas"
Autoscroll
slow
fast
+/-
esc
set tempo
stop
Hola a todos, que Dios los bendiga muchisimo, esta es una transcripcion
de la cancion bajo tus alas una bellisima cancion que edifica nuestra
vida, no es tan exacta como en la canción pero casi esta igual

INTRO:

e -0-8---------0-----------3-3s5-3-------3---------3-1-----------1---
B ---------------1-------3-------------3---3-----------1---1-------1-
G -----------0-----0---0-------------0-----0-0---2-------2-----2-----
D -------------------------------------------------------------------
A -3---Op2p3---------------------------------------------------------
E -------------------3-------------3-----------1-------------1-------

e ------1---0h3r0----0h3r0--------------
B ----1---1-------1--------1-------3----
G ---------------------------0---0---0--    entonces comienza........
D --3-----------------------------------
A ----------3-------3-------------------
E -----------------------------3--------

 El canto se puede acompañar con el mismo arpegeo de la introduccion
 o con el acompañamiento siguiente:


           C                G                 F
Yo quiero ser, ser como un lirio, que no se preocupa
              C  G
por que vestira-aaa

           C               G             F                   C  G
Yo quiero ser, ser como un ave, que no se afana por que comerá-aaa

         Dm    F          C                 Dm    F      G
Yo quiero estar cerca muy cerca, entre tus brazos, cerca de tí
         Dm    F          C            Dm     F         G
Yo quiero estar cerca muy cerca, bajo tus alas, cerca de tí

 C      G    F     C
aaaaa a-aaa aaaa aaaaaa


           C               G             F                   C  G
Yo quiero ser, ser como un ave, que no se afana por que comerá-aaa

         Dm    F          C                 Dm    F      G
Yo quiero estar cerca muy cerca, entre tus brazos, cerca de tí
         Dm    F          C            Dm     F         G
Yo quiero estar cerca muy cerca, bajo tus alas, cerca de tí


ojala y les haya gustado Dios los bendiga, saludos a los
hermanos de iglesia "El Buen Samaritano" San Pedro Sac. S.M.
Suggest correction
Give kudos to tab author, rate the tab!
1 2 3 4 5
comments
print report bad tab
guest
You may want to rate the tab now too:
select rating
Wanna post a correction for this tab? Suggest correction