Oops, an error
Loading. Please wait.

Dulce Voz Tab

by Sebna
17 views 1 this week
no commentswrite comment
1 2 3 4 5
3 more votes to show rating
add to favorites
launch autoscroll
font size
0
reset
how to read this tab
guitar tuner
×
Best way to learn
"Dulce Voz"
Autoscroll
slow
fast
+/-
esc
set tempo
stop
las posiciones de los acordes puede ser q sten mal pero son los
acordes que lleva sta cancion

Intro:

E--5 --4-------
B--5--5-5------
G--4--4----4--- X2
D--0--0--------
A--0--0--------
E--0--0--------

F#m  E  E  F#m  < - cuando se va tocando los acordes se toca
dos veces el tab d abajo

E--5 --4-------
B--5--5-5------
G--4--4----4--- X2
D--0--0--------
A--0--0--------
E--0--0--------

LUEGO
E--------5-7-7 full-5h7p5----------
B--5/7--------------------------7--
G----------------------------------

F#m                     C#m          E                    D     A
Ayúdame a ver lo que tú ves, Ayúdame a ver lo que soy para ti.
  C#m                D   Bm         D             E
Perdóname por no pensar, Mi egoísmo no me deja ver.

F#m                                     E
Haz trazado mi destino, si supiera Oh Dios,
F#m
Cada decisión un paso a tu camino o a la perdición
D                           A
Es mejor que lo haga bien, No se a donde tu me llevas,
F#m             D          Bm            E
Al final del día, quiero ver a donde llegue
   A G#m E    F#m    E                 Bm  D
Y ver lo que teeeeengo, y ver lo que sooooooy

Coro:
       A         E        Bm          D
Dulce voz, háblame, dulce voz, enséñame,
        A         E        Bm    D
Dulce voz, guíame, dulce voz
       A         E         Bm         D
Dulce voz, háblame, dulce voz, enséñame,
        E
Dulce voz????

Solo E   E    F#m    E   E

E-------------------|------------------|-----5-7-7 full-5h7p5----
B-10/9-9--7-7/9-9/5-|-10/9-9-7-7/9-9/5-|-5/7-------------------7-
G-------------------|------------------|-------------------------

E--------------------|-----------------
B-10/9--9--7-7/9-9/5-|-10/9--9-7--9----
G--------------------|-----------------

      F#m                     C#m
Hay veces que no logro lo que yo esperé,
     E                      D        A
Y te reclamo a no entender lo que vi
   C#m          D       Bm      D                   E
Perdóname por no pensar,    Mi egoísmo no me deja ver.

F#m                                  E
Haz trazado mi destino, si supiera Oh Dios,
F#m
Cada decisión un paso a tu camino o a la perdición
D                            A
Es mejor que lo haga bien, No se a donde tu me llevas,

F#m         D    Bm                  E
Al final del día, quiero ver a donde llegue
      A G#m E    F#m      E            Bm      D
Y   ver   lo   que   teeeeengo, y ver lo que sooooooy

Coro:
       A         E        Bm          D
Dulce voz, háblame, dulce voz, enséñame,
        A         E        Bm    D
Dulce voz, guíame, dulce voz
       A         E         Bm         D
Dulce voz, háblame, dulce voz, enséñame,
        E
Dulce voz????

Fin  ( E   E    F#m    E   E )

E------------------|-------------------|------5-7-7 full-5h7p5-----
B-10/9-9-7-7/9-9/5-|-10/9-9--7-7/9-9/5-|-5/7--------------------7--
G------------------|-------------------|---------------------------

E--------------------|-----------------
B-10/9--9--7-7/9-9/5-|-10/9--9-7--9----
G--------------------|-----------------
Suggest correction
Give kudos to tab author, rate the tab!
1 2 3 4 5
comments
print report bad tab
guest
You may want to rate the tab now too:
select rating
Wanna post a correction for this tab? Suggest correction