Oops, an error
Loading. Please wait.

Los Barcos Tab

by Sebna
23 views 1 this week
no commentswrite comment
1 2 3 4 5
3 more votes to show rating
add to favorites
launch autoscroll
font size
0
reset
how to read this tab
guitar tuner
×
Best way to learn
"Los Barcos"
Autoscroll
slow
fast
+/-
esc
set tempo
stop
Intro: E Bsus4 C#m-Bsus4 Asus2 (dos veces,quedando en Asus2)
el C#m si kieren lo hacen sus4 igual suena bien solo con C#m
Estrofa 1
E               Bsus4
Desde un puerto salen barcos,
C#m-Bsus4      Asus2
decorados porque hay fiesta.
E                  Bsus4
En cada barco hay dos personas,
C#m  -  Bsus4       Asus2
grandes sueños ilusiones

Coro
C#m          Bsus4              Asus2
Hasta que la muerte nos separe,
      Bsus4               E
prometimos desde el muelle.
        Bsus4           C#m
Y con anillos en las manos,
     Asus2       E       Bsus4  C#m-Bsus4 Asus2
navegamos, navegamos....oh.....oh...
                       E      Bsus4   C#m-Bsus4 Asus2
en este mar que es la vida....ah.....ah...

Estrofa 2
Y vemos barcos salir, y vemos otros hundirse.
Y con amigos que han zarpado sin su capitán.
Y vemos otros estancados en lagunas de agua muerta,
otros llevados por el viento, atormentados
por los truenos...oh....oh...
en este mar que es la vida...ah....ah...

(Solo)
Sube un tono: F# C#sus4 Dm#-C#sus4 Bsus2 (Dos veces)
e||------------------------------|
B||--14--14--14--14----14----12--|
G||------------------------------|
D||------------------------------|
A||------------------------------|
E||------------------------------|

-------------------------------|
---L--11-----------------------|
------------11----11-13---11~--|
-------------------------------|
-------------------------------|
-------------------------------|

--------------------------|
--------------------------|
--L------11--13--13b------|
--------------------------|
--------------------------|
--------------------------|

--------------------------|
--------------------------|
--11-------11-------------|
------9--------8~----L----|
--------------------------|
--------------------------|

----------------------------------|
----------11----------12------11--|
--11--11------11--11------11------|
----------------------------------|
----------------------------------|
----------------------------------|

------------------------------|
------12------14--------12----|
--11------11--------11--------|
------------------------------|
------------------------------|
------------------------------|

---------------------------||
--15b------15b----17b------||
---------------------------||
---------------------------||
---------------------------||
---------------------------||

Se repite estrofa 1 y Luego el coro, ambos con los
acordes de F# C#sus4 Dm#-C#sus4 Bsus2

Puente
Y este muelle esperan dos por ver partir
su propia nave y cuando el tiempo diga si
te seguiremos....señor
F# C#sus4 D#m-C#sus4 Bsus2 F# D#m Bsus2 C#sus4 F# C#sus4

Que nos guies...que nos guies,
que seas nuestro capitán.....

espero que les sirva de mucho y que Dios les bendiga
mi princesa mi Guadalupe del Carmen Lemus Coto te amo mucho!!
Atte. Rodrigo Menendez!!!!
Suggest correction
Give kudos to tab author, rate the tab!
1 2 3 4 5
comments
print report bad tab
guest
You may want to rate the tab now too:
select rating
Wanna post a correction for this tab? Suggest correction