Oops, an error
Loading. Please wait.

Mujer Virtuosa Tab

by Sebna
58 views 1 this week
no commentswrite comment
1 2 3 4 5
3 more votes to show rating
add to favorites
launch autoscroll
font size
0
reset
how to read this tab
guitar tuner
Autoscroll
slow
fast
+/-
esc
set tempo
stop
Hola La Cuerda les mando esta canción que han pedido mucho.
Se toca con un capo en el segundo traste por lo que los acordes
se transportan 1 tono hacia arriba.
No transporté la melodía ni el solo de sax.


Intro:
    C               G/B              Am             G6
e --------------0---------3---------------------------------0--------
B --1-----3---------0-------0---0h1--1-----3-----1--0-----3-----0h1--
G ----0-----0---------0-------0--------2-----2--------0--------------
D ------2-----2---------0----------------2-----2--------0-----0------
A --3---------------2----------------0-------------------------------
E --------------------------------------------------3----------------


    C               G/B              Am             G6
e --------------0---------3------------------------------------------*
B --1-----3---------0-------0---0h1--1-----3-----1--0----------------*
G ----0-----0---------0-------0--------2-----2-------------------0---*
D ------2-----2---------0----------------2-----2---------------0-----*
A --3---------------2----------------0---------------------0-2-------*
E --------------------------------------------------3----------------*


Esta es la melodía del principio de lo que creo es un sax:
(no está transportado)
e --10--9--10--9--10--9--------12--10--9---10--9--10---12--12-----*
B ------------------------10--------------------------------------*
G ----------------------------------------------------------------*


C             G       Am7                G
  De las bendiciones      que Dios me ha dado
C               G           Am7       Dsus4  D
  No hay duda alguna que tú eres la mejor
C             G        Am7               G
  Con mucha paciencia     también con oración
C              G       Am7     D
  Un gran gozo hubo en mi corazón (cuando te conocí)


C          G                    D                 G
  Mujer virtuosa (quién la hallará) quién la hallará
C               G              D
  Tu estima es mas que alguna joya
C            G              D               G
  Fuerza y honor (son tu vestido) son tu vestido
C       G             D  C
  Sabiduría hay en tu boca

    C                  G                C              G
e ---------------------------3--------------------------------------
B --------3p1----------0-----------0h1--1-----3p1---1--0------------
G ------0-----0----------0-------0----------0--------------------0--
D ----2---------2----------0---0----------2-------2------------0----
A --3-------------3---------------------3------------------0-2------
E ---------------------3-------------------------------3------------


C          G     Am7             G
  Muchas mujeres     hicieron el bien
C             G       Am7    Dsus4  D
  Mas tu sobrepasas a todas
C               G     Am7               G
  Muéstrame tu rostro     hazme oír tu voz
C               G      Am7      D
  Pues hermosa eres y dulce tu voz...


C          G                    D                 G
  Mujer virtuosa (quién la hallará) quién la hallará
C               G              D
  Tu estima es mas que alguna joya
C            G              D               G
  Fuerza y honor (son tu vestido) son tu vestido
C       G             D  C  G
  Sabiduría hay en tu boca


Solo Sax:
(no está transportado, los acordes si)

    C             G/B                      Am              G6
e --10--9--10--9--10--9--------12--10--9---10--9--10---12--12-----
B ------------------------10--------------------------------------
G ----------------------------------------------------------------

    C             G/B                  Am            G6
e --10--9--10--9--10--9------------------------------12-----------
B ------------------------10----12p10--------10-12----------------
G -------------------------------------11-------------------------

      C             G/B                 Am          G6
e -12-12h14p12--12--12h14p12----12-10-9-10----------7s9--7-9p7----
B -------------------------------------------10----------------10-
G ----------------------------------------------11----------------
D -------------------------------------------------11-------------

     C                 G/B              Am                   D
e ---------------------14--12--7s9-7----------14-12-12-----11s12--*
B ---------10-10-10------------------10----------------14---------*
G -9s11-11----------11--------------------------------------------*


C          G                    D                 G
  Mujer virtuosa (quién la hallará) quién la hallará
C               G              D
  Tu estima es mas que alguna joya
C            G              D               G
  Fuerza y honor (son tu vestido) son tu vestido
C       G             D
  Sabiduría hay en tu boca


Salida:
    C                                 G
e ------------------------------------------3p0----------
B --------3p1---1--------1h3p1---1----0-----------0h1----
G ------0--------------0----------------0----------------
D ----2-------2------2---------2----------0-----0--------
A --3--------------3-------------------------------------
E ------------------------------------3------------------

    C                  G                  Am
e ---------------------------3------------------------0--
B --------3-1-----1----0-----------0h1----1-----3--------
G ------0-------0--------0-------0----------2-----2------
D ----2-------2------------0---0--------------2-----2----
A --3-------------------------------------0--------------
E ---------------------3---------------------------------

    D                                   G
e --------3-----3----2-----0h2---------------3---*
B ------3---3-----3----3-------3------------3----*
G ----2-------2----------2-------2---------0-----*
D --0----------------0-------------0------0------*
A ---------------------------------------2-------*
E --------------------------------------3--------*


Cualquier comentario escribanme a hectorprs@
Suggest correction
Give kudos to tab author, rate the tab!
1 2 3 4 5
comments
print report bad tab
guest
Wanna post a correction for this tab? Suggest correction