Oops, an error
Loading. Please wait.

Sacrifice Tab

605 views 1 this week
no commentswrite comment
1 2 3 4 5
2 more votes to show rating
add to favorites
launch autoscroll
font size
0
reset
how to read this tab
guitar tuner
Autoscroll
slow
fast
+/-
esc
set tempo
stop
Help us to improve Ultimate-Guitar.com Take our survey!
×
e-----------------------------------|---------------|
B-----------------------------------|---------------|
G-----------------------------------|3p2p0-2p0------|X2
D----3-3-3-2-2-5-5----3-3-3-2-2-0-0-|---------3-2-0-|
A-000--------------000--------------|---------------|
C-000--------------000--------------|---------------|
   play the whole riff as 5 times       on the 5th
                                     time play this 
                                      5 times

e----------------------|
B----------------------|
G----------------------|
D-1p0-1p0--------------|
A-1p0-1p0--------------|
C-3p2-3p2--------------| x4

e-----------------------------|
B-----------------------------|
G-----------------------------|
D-000000000000-2222-000000000-|
A-----------------------------|
C-----------------------------| play this about 3 times

e-----------------------------------|
B-----------------------------------|
G-----------------------------------|
D-------------/////////////////////-|
A-------------//////pickslide//////-|
C-0----0-0-0--/////////////////////-|

e---------------------------------------------------------------------|
B---------------------------------------------------------------------|
G---------------------------------------------------------------------|
D---------------------------------------------------------------------|
A-0000000-222222-33333--55555--77777p5555p3333p55555p33333p2222p00000-|
C---------------------------------------------------------------------|

e------------------------------------------------------|
B------------------------------------------------------|
G------------------------------------------------------|
D------------------------------------------------------|
A-22222-0000000-77777p5555p3333p55555p33333p2222p00000-|
C------------------------------------------------------|
play this about 2 times


basically just play the entire tab twice

breakdown
e------------------------|------------------------|
B------------------------|------------------------|
G------------------------|------------------------|
D------------------------|------------------------|
A------------------------|------------------------|
C-000-00-0--000--0--00-0-|-000-00-0--000--0-00-3*-|

http://www.myspace.com/Secondthief
Suggest correction
Give kudos to tab author, rate the tab!
1 2 3 4 5
comments
print report bad tab
guest
You may want to rate the tab now too:
select rating
Wanna post a correction for this tab? Suggest correction