Oops, an error
Loading. Please wait.

Awake tab

version 2
version 2

Interactive

43,611 views 12 this week
8 commentsread comments
1 2 3 4 5
x 9
add to favorites
×
Save as Personal and add changes to this tab that will be seen only by you. Learn more ›
×
You can save this tab as Personal to edit and correct it or add notes. All changes will be seen only by you. Learn more »
launch autoscroll
font size
0
reset
how to read this tab
guitar tuner
edit
Autoscroll
slow
fast
+/-
esc
set tempo
stop
this should be pretty close to perfect. feel free to e-mail me
at ktfadul@vt.edu with any questions, comments, suggestions,
corrections or praise. praise would be the best way to go ;]

CAPO I

Intro/Verse:
e|--------------------------------------------------------------|
B|--------0------------0------------0------------0--------------|
G|------4---4--------4---4--------3---3--------3---3------------|
D|----4-------4----4-------4----4-------4----4-------4----------|
A|--2------------2----------------------------------------------|
E|----------------------------4------------4--------------------|

Prechorus:
e|--------------------------------------------------------------|
B|---------------------0------------0---0--------0---0----------|
G|--------4-1------------3------------6------------6------------|
D|------2-----2------4-----4------6------------6----------------|
A|----2------------4------------6------------6------------------|
E|--0------------2------------4------------4--------------------|
 Chords: 022100, 244322, 466444

Chorus:
e|--------------------------------------------------------------|
B|--------0------------0------------0----------0----------------|
G|------4---4--------4---1------------3--------------3----------|
D|----1-------1----2-------2------4-----4----6-----4------------|
A|--2---------------------------4-------------------------------|
E|---------------0------------2------------4-----2--------------|

e|--------------------------------------------------------------|
B|----------------------------------0-----0-----0---------------|
G|--------4-1----------4-1------------3-----3-----3-------------|
D|------2-----2------2-----2------4-----4-----4-----4-----------|
A|----2------------2------------4-------------------------------|
E|--0------------0------------2---------------------------------|
 Chords: x24442, 022100, 244322, 466444 > 244322
         022100, 244322

Interlude:
e|--------------------------------------------------------------|
B|--------0---------------0*------------------------------------|
G|------4----3h4--------3----3h4--------------------------------|
D|----4----------4----4----------4------------------------------|
A|--2-----------------------------------------------------------|
E|------------------4-------------------------------------------|
 *end here second time through

Bridge:
466444, 022100, x24442, 244322 (3x)
022100, 244322

End:
e|--------------------------------------------------------------|
B|--------0-----------------------------------------------------|
G|------4-------------3~----------------------------------------|
D|----4------------2--4~----------------------------------------|
A|--2------------2----4~----------------------------------------|
E|-----------0-4------------------------------------------------|

Progression:
4x Intro/Verse
2x Prechorus
2x Chorus
2x Interlude
2x Intro/Verse
2x Prechorus (chords)
2x Chorus (chords)
1x Bridge
2x Chorus (chords)
1x End

            
            
Suggest correction
Creating personal tab
Creating personal tab
You can edit any tab online and save it as your Personal.

You can edit, replace or remove any tab part or add personal notes – all changes will be seen only by you.

Personal tabs can be accessed anytime from any device, even offline.
Learn more »
comments
print report bad tab
8 comments total. Showing first comments.
0 reply
aswelayinashes 10 Nov 05, 2006 05:52 PM

intro sounds good but prechorus i think is a little off

0 reply
humanchaos 31 Jul 19, 2007 06:47 PM

close, but there's no capo, he tunes his B string up to a C for this song, just go on youtube and watch a video of him playing and you'll see him tune it.

-1 reply
goodis 80 Aug 14, 2007 05:02 AM

Tune the e-string down to a C! =)

Intro/Verse

C--------0-----------0-----------0-----------0-----------|
B------1---1-------1---1-------0---0-------0---0---------|
G----0-------0---0-------0---0-------0---0-------0-------| X4
D--------------------------------------------------------|
A--3-----------3-----------0-----------0-----------------|
E--------------------------------------------------------|

guest
Wanna post a correction for this tab? Suggest correction