Oops, an error
Loading. Please wait.

Awake Chords

version 4
version 4

Whole song

Interactive

3,161 views 1 this week
no commentswrite comment
1 2 3 4 5
please rate
add to favorites
launch autoscroll
font size
0
reset
transpose
0
reset
display chords
guitar tuner
Autoscroll
slow
fast
+/-
esc
set tempo
stop
Help us to improve Ultimate-Guitar.com Take our survey!
×
Author
Difficulty
intermediate
Awake  - Secondhand Serenade
Tuning - Standard
Capo   - Fret 1
Tabbed by - Weston T. Leavitt


Simplified chords -

   C#      F#     Em     G#      B
e |-2-|  |-x-|  |-0-|  |-4-|   |-x---|  e
b |-2-|  |-x-|  |-0-|  |-4-|   |-x---|  b
g |-4-|  |-x-|  |-1-|  |-4-|   |-4---|  g
D |-4-|  |-4-|  |-2-|  |-6-|   |-4---|  D
A |-4-|  |-2-|  |-2-|  |-6-|   |-2---|  A
E |-2-|  |-4-|  |-0-|  |-4-|   |-x---|  E

Picking..

Intro and 1st verse

E ------------------------------------------------------------|
C --------0-------------0------------0-----------0------------|
G ------4----4--------4---4-------3----3-------3--3-----------|   x2
D ----4---------4---4-------4---4--------4---4------4---------|
A --2-------------2-------------------------------------------|
E ----------------------------4------------4----------4-------|


  every                      eyes
  last                    disguised
E --------------------------------------------------------|
C --------0-------------0------------0-----------0--------|
G ------4----4--------4---4-------3----3-------3--3-------|   x2
D ----4---------4---4-------4---4--------4---4------4-----|
A --2-------------2---------------------------------------|
E ----------------------------4------------4----------4---|

   lying         heart        like
   movies        three        fine
E ---------------------------------------------------------|
C --------0-------------0------------0--------------0------|
G ---------------------------------------------------------|   x2
D -----2------2-------4----4-------6----6--------6----6----|
A ---2----------2---4--------4---6--------6----6--------6--|
E --0-------------2------------4-------------4-------------|


Chorus

   stay         awake         me           don’t   miss
   share         air        breathe        give    heart
E ----------------------------------------------------------|
C ---------0-------------0-----------0----------------------|
G ----------------------------------------------------------|
D ------9----9--------2---2-------4----4--------6----4------|
A ---9----------9---2-------2---4--------4----6-----4-------|
E --7-------------0-----------2-------------4------2--------|


                                                            x2

 thing                   thing
 string                  thing
----------------------------------------------------|
--------0-----------0-----------0-----------0-------|
----------------------------------------------------|
------2---2-------2---2-------4---4-------4---4-----|
----2-------2---2-------2---4-------4---4-------4---|
--0-----------0-----------2-----------2-------------|

Interlude

E ----------------------------------------------------|
C --------0--------------0------------0------------0--|
G ------4-----3h4------4----3h4------4---3h4-----4----|
D ----4----------4---4---------4---4--------4--4------|
A --2----------------------------2--------------------|
E -----------------4-------------------------4--------|

2nd Verse
(same as first until strumming comes in)


You're my key to survival.
    Em                  C#
And if it's a hero you want,
                     G#
I can save you. Just stay here.


     Em
Your whispers are priceless.
     C#                           G#
Your breath, it is dear. So please stay near.

(Chorus)
         B    Em        C#
Will you stay awake for me
  G#          C#       Em
I don't wanna miss anything
                      C#
I don't wanna miss anything
       B         Em     C#
I will share the air I breathe,
     G#          C#          Em
I'll give you my heart on a string,
                           C#
I just don't wanna miss anything.


G#    Em   C#
  Say my name. I just want to hear you.
G#    Em   C#
  Say my name. So I know it's true.
       G#                   Em
You're changing me. You're changing me.
    C#
You showed me how to live.
      Em            C#
So just say. So just say,


            F#   Em         C#
That you'll stay awake for me.
  G#           C#       Em
I don't wanna miss anything.
                      C#
I don't wanna miss anything.
       F#        Em     C#
I will share the air I breathe,
     G#           C#          Em
I'll give you my heart on a string,
                           C#
I just don't wanna miss anything
Suggest correction
Give kudos to tab author, rate the tab!
1 2 3 4 5
comments
print report bad tab
guest
You may want to rate the tab now too:
select rating
Wanna post a correction for this tab? Suggest correction