Oops, an error
Loading. Please wait.

Fix You Tab

version 1
version 1

Intro

Whole song

Interactive

13,938 views 6 this week
2 commentsread comments
1 2 3 4 5
x 4
add to favorites
launch autoscroll
font size
0
reset
how to read this tab
guitar tuner
Autoscroll
slow
fast
+/-
esc
set tempo
stop
Help us to improve Ultimate-Guitar.com Take our survey!
×
Author
First tab...blah blah blah. But I'm pretty sure it's 100% right


e|------------------------------------------------|
B|-------4-----------4-----------4-----------4----|
G|----3-----3-----3-----3-----3-----3-----3-----3-|
D|-1----------------------------------------------|
A|-------------------------3-----------1----------|
E|-------------3----------------------------------|
Suggest correction
comments
print report bad tab
2 comments total.
0 reply
Rachellery 10 Jun 14, 2009 10:09 PM

This is close but not perfect.
Here's my suggestion.

tune to drop D.

E---------------------------------------------------------
B--------4----------4------------4----------4-------------
G------3---3------3---3--------3---3------3---3-----------
D---------------------------------------------------------
A--------------------------3------------1-----------------
D--0-----------4------------------------------------------

Hope that helps. It definitely sounds better.

0 reply
B.Bauer 16 Aug 08, 2009 08:53 AM

actually, both of you are wrong. i tabbed this out last night, and it hasn't been posted by the site, but i'm positive mine is 100% perfect. i've listened to it many times. check out for Fix You by Secondhand Serenade in a few days time.

guest
You may want to rate the tab now too:
select rating
Wanna post a correction for this tab? Suggest correction