Oops, an error
Loading. Please wait.

Fix You tab

version 1
version 1

Whole song

Interactive

14,470 views 9 this week
3 commentsread comments
1 2 3 4 5
x 11
add to favorites
×
Save as Personal and add changes to this tab that will be seen only by you. Learn more ›
×
You can save this tab as Personal to edit and correct it or add notes. All changes will be seen only by you. Learn more »
launch autoscroll
font size
0
reset
how to read this tab
guitar tuner
edit
Autoscroll
slow
fast
+/-
esc
set tempo
stop
Hi there! I love Secondhand Serenade and just love
their version of Coldplay's terrific song!   I was quite
surprised there wasn't a tab version like this up on
UG because this is so simple.  So here it is.  This 
plays along exactly to Secondhand Serenade's version,
as far as when to pick and when to strum.  But it will
also play nicely along to Coldplay's :)
  
*I sometimes pick through the chorus parts
and will add that picking pattern if
requested:)

   *************Have fun & Rate!***************
                    Thanks:)

Thanks to calebpritchard for the fix on the Em7 :)



Standard Tuning[EADGBe]
w/Capo on 3



Intro-

        C            Em7             Am            Gsus
e|---------------------------------------------------------------|
B|-------1-------------1--------------1-------------1------------|
G|-----0---0---------0---0----------2---2---------0---0----------|
D|-----------------2---------------------------------------------|  x2
A|---3----------------------------0------------------------------|
E|----------------------------------------------3----------------|


(This picking pattern continues throughout the entire 1st & 2nd verses)

        C            Em7             Am            Gsus
e|---------------------------------------------------------------|
B|-------1-------------1--------------1-------------1------------|
G|-----0---0---------0---0----------2---2---------0---0----------|
D|-----------------2---------------------------------------------|  x4
A|---3----------------------------0------------------------------|
E|----------------------------------------------3----------------|

         C                    Em7        Am   Gsus         
When you try your best but you don't succeed
         C                     Em7            Am   Gsus
When you get what you want but not what you need
         C                 Em7          Am     Gsus
When you feel so tired but you can't sleep
           C  Em7  Am   Gsus
Stuck in reverse


        C            Em7             Am            Gsus
e|---------------------------------------------------------------|
B|-------1-------------1--------------1-------------1------------|
G|-----0---0---------0---0----------2---2---------0---0----------|
D|-----------------2---------------------------------------------|  x4
A|---3----------------------------0------------------------------|
E|----------------------------------------------3----------------|

        C                    Em7         Am    Gsus
And the tears come streaming down your face
         C                  Em7        Am     Gsus
When you lose something you can't replace
         C                   Em7        Am    Gsus  
When you love someone but it goes to waste
            C  Em7 Am   Gsus  
Could it be worse?


*Strum*
F            G         F
 Lights will guide you home
      G         F  
And ignite your bones
           G -once          
And I will try 
      *Pick* C  Em7  Am   Gsus        
To fix you


C  Em7  Am   Gsus


*strum*
    C             Em      Am  G
And high above or down below..
            C               Em       Am   G
When you're too in love too let it go...
           C                Em      Am   G
But if you never try you'll never know
                 C Em  Am G
Just What you're worth



F            G         F
 Lights will guide you home
      G         F  
And ignite your bones
           G   -stop       
And I will try 
          C   F   C  G
To fix you


Am  F  C  G



C             F               C                       
  Tears stream, Down your face,
                        G                 Am
When you lose something you cannot replace
            F                     C    G
Tears stream, down your face, And I.... 
C             F               C                       
  Tears stream, Down your face,
                        G                 Am
When you lose something you cannot replace
            F                     C    G
Tears stream, down your face, And I.... 
C            F                C                      
 Tears stream, down your face,
                     G                   Am
I promise you I will learn from my mistakes 
            F                     C    G  F
Tears stream, down your face, And I.... 


*strum each chord once*
F      F    G          F
Lights will guide you home
F   F G          F  
And ignite your bones
F F    G          
I will try 
          C  
To fix you





Have fun and RATE!
cristy♥twilight

            
            
Suggest correction
Creating personal tab
Creating personal tab
You can edit any tab online and save it as your Personal.

You can edit, replace or remove any tab part or add personal notes – all changes will be seen only by you.

Personal tabs can be accessed anytime from any device, even offline.
Learn more »
comments
print report bad tab
3 comments total.
0 reply
calebpritchard 10 May 11, 2014 09:24 PM

On the Em7 drop the D on the A string to a G on the D string. It goes a lot better and fits with the rise to the G rather than the drop to the D.

0 reply
rowmarra 10 Jan 08, 2015 01:08 AM

Can you post the picking pattern and the strumming pattern you use if possible? thanks great tab though

guest
You may want to rate the tab now too:
select rating
Wanna post a correction for this tab? Suggest correction