Oops, an error
Loading. Please wait.

Is There Anybody Out There Tab

4,922 views 1 this week
no commentswrite comment
1 2 3 4 5
2 more votes to show rating
add to favorites
launch autoscroll
font size
0
reset
how to read this tab
guitar tuner
Autoscroll
slow
fast
+/-
esc
set tempo
stop
Help us to improve Ultimate-Guitar.com Take our survey!
×
Author
Tuning
D# G# C# F# A# D#
This is an awesome album, and this is one of my favorite songs off of it. So, I decided 
make a tab for it. Please rate and comment!

it is played in E flat tuning

Intro
eb|------------0-----------------0--------------0----------0-----|
Bb|--------------0-----------------0-------------------------0---|
Gb|---------4-----------4-----4--------------4----------4--------|
Db|------2-----------2-----2--------------2----------2-----------|
Ab|---4--------------------------------2----------2--------------|
Eb|--------------------------------------------------------------|

"so what am I fighting for"
eb|-------------------------------|
Bb|-------------------------------|
Gb|-------------------------------|
Db|----7777--11111111---9999------|
Ab|----7777--11111111---9999------|
Eb|----5555---9-9-9-9---7777------|

Chorus
eb|----------------------------------------|
Bb|----------------------------------------|
Gb|----9999--------------------------------|
Db|----9999--9999--11111111--7777--9999----|  Repeat til the end of chorus
Ab|----7777--9999--11111111--7777--9999----|
Eb|----------7777---9-9-9-9--5555--7777----|

play everything again

then

"never thought I would end up all alone"
eb|-------------------------------|
Bb|-------------------------------|
Gb|-------------------------------|
Db|---7777--11111111--9999--------|
Ab|---7777--11111111--9999--------|
Eb|---5555---9-9-9-9--7777--------|

repeat ^ until

"I can't catch my breathe"
eb|-------------------------------|
Bb|-------------------------------|
Gb|-------------------------------|
Db|------4444--7777--9999---------|
Ab|------4444--7777--9999---------|
Eb|------2222--5555--7777---------|

Then play the chorus until
3:22 then play this
"a way to survive"
eb|-------------------------------|
Bb|-------------------------------|
Gb|----------------------9~-------|
Db|------4444--7777--9~--9~-------|
Ab|------4444--7777--9~--7~-------|
Eb|------2222--5555--7~--0~-------|
Suggest correction
Give kudos to tab author, rate the tab!
1 2 3 4 5
comments
print report bad tab
guest
You may want to rate the tab now too:
select rating
Wanna post a correction for this tab? Suggest correction