Oops, an error
Loading. Please wait.

Its Not Over Tab

version 2
version 2

Whole song

Interactive

122,094 views 6 this week
13 commentsread comments
1 2 3 4 5
x 12
add to favorites
launch autoscroll
font size
0
reset
how to read this tab
guitar tuner
×
Best way to learn
"Its Not Over"
Autoscroll
slow
fast
+/-
esc
set tempo
stop
Capo
2nd fret
It's Not Over by Secondhand Serenade
Standard Tuning
Capo 2nd Fret

Intro/Verse             * = play only for pre-chorus
e----0----0---0---0---0---0---0---0---0*----0*----|
B---0-0--0-0-0-0-0-0-0-0-0-0-0-0-0-0-0*-0*-0*-0*--|
G--9---9----4---4---6---6---2---2---2*---2*-------|
D-------------------------------------------------|
A-------------------------------------------------|
E-------------------------------------------------|

Chorus Guitar 1
e4-4-4-4h5-2-2-2-2-4-4-4-4-7-7-7-7-4-4-4-4h5-2-2-2-2-4-4-4-4-5-5-5-5-5-5-5-5|
B---------------------------------------------------------------------------|
G---------------------------------------------------------------------------|
D---------------------------------------------------------------------------|
A---------------------------------------------------------------------------|
E---------------------------------------------------------------------------|

Verse Palm Mute/Chorus Guitar 2
e-----------------------------------------------|
B-----------------------------------------------|
G-------------44444444---44444444---22222222----|
D--22222222---44444444---22222222---22222222----|
A--22222222---22222222---44444444---00000000----|
E--00000000-------------------------------------|

Bridge
e------------------------|
B------------------------|
G-------2222----44444444-|
D-2222--2222----44444444-|
A-2222--0000----22222222-|
E-0000-------------------|
Suggest correction
comments
print report bad tab
13 comments total. Showing first comments.
+1 reply
krmrockstar1110 51 Feb 13, 2007 12:00 PM

should be E instead of Em
e-----------------------------------------------|
B-----------------------------------------------|
G--11111111---44444444---44444444---22222222----|
D--22222222---44444444---22222222---22222222----|
A--22222222---22222222---44444444---00000000----|
E-----------------------------------------------|

+1 reply
uiop21 349 Mar 25, 2007 06:58 PM

Sounds perfect! But like he said, should be E instead of Em

0 reply
uiop21 349 Mar 27, 2007 08:02 PM

NO GOD DAMN CAPO YOU GUYS ARE RETARDS I TAKE BACK WHAT I SAID EARLIER!!!!

guest
You may want to rate the tab now too:
select rating
Wanna post a correction for this tab? Suggest correction