Oops, an error
Loading. Please wait.

Its Not Over Tab

version 4
version 4

Whole song

Interactive

23,691 views 1 this week
2 commentsread comments
1 2 3 4 5
x 4
add to favorites
launch autoscroll
font size
0
reset
how to read this tab
guitar tuner
×
Best way to learn
"Its Not Over"
Autoscroll
slow
fast
+/-
esc
set tempo
stop
Author
Song: It’s not over
Artist: Secondhand Serenade
Tab and Chords by: Jorem(jOr3m_01@yahoo.com)

        just email me or send a                      Ebm
        mssge to my frndster if there              E|-----|
        sumthing u wnt 2 ask...                    B|--4--|
                                                   G|--3--|
Tuning: Standard                                   D|--1--|   
                                                   A|-----|
                                                   E|-----|
                                          (Do this in strumming part only)  

Intro:                                       

    F#              C#               Ebm             B                  
E|--2---2---2---2-------2-------2--------2-------2-------2-------2----|
B|----2---2---2---2---2---2---2---2--4-----4-4-----4---2---2---2---2--|
G|------------------6-------6----------6-------6-----4-------4--------|
D|--------------------------------------------------------------------|
A|--------------------------------------------------------------------|
E|--------------------------------------------------------------------|

Verse: 1

    F#              C#               Ebm             B                  
E|--2---2---2---2-------2-------2--------2-------2-------2-------2----|
B|----2---2---2---2---2---2---2---2--4-----4-4-----4---2---2---2---2--|
G|------------------6-------6----------6-------6-----4-------4--------|
D|--------------------------------------------------------------------|
A|--------------------------------------------------------------------|
E|--------------------------------------------------------------------|

    F#              C#               Ebm             B                  
E|--2---2---2---2-------2-------2--------2-------2-------2-------2----|
B|----2---2---2---2---2---2---2---2--4-----4-4-----4---2---2---2---2--|
G|------------------6-------6----------6-------6-----4-------4--------|
D|--------------------------------------------------------------------|
A|--------------------------------------------------------------------|
E|--------------------------------------------------------------------|

     B            
E|-------2-------2------|
B|-----2---2---2---2----|
G|---4-------4----------|
D|----------------------|
A|----------------------|
E|----------------------|


Chorus:

    F#              C#               Ebm             B                  
E|--2---2---2---2-------2-------2--------2-------2-------2-------2----|
B|----2---2---2---2---2---2---2---2--4-----4-4-----4---2---2---2---2--|
G|------------------6-------6----------6-------6-----4-------4--------|
D|--------------------------------------------------------------------|
A|--------------------------------------------------------------------|
E|--------------------------------------------------------------------|

    F#              C#               Ebm             B                  
E|--2---2---2---2-------2-------2--------2-------2-------2-------2----|
B|----2---2---2---2---2---2---2---2--4-----4-4-----4---2---2---2---2--|
G|------------------6-------6----------6-------6-----4-------4--------|
D|--------------------------------------------------------------------|
A|--------------------------------------------------------------------|
E|--------------------------------------------------------------------|

     B            
E|-------2-------2------|
B|-----2---2---2---2----|
G|---4-------4----------|
D|----------------------|
A|----------------------|
E|----------------------|

    F#              C#               Ebm             B                  
E|--2---2---2---2-------2-------2--------2-------2-------2-------2----|
B|----2---2---2---2---2---2---2---2--4-----4-4-----4---2---2---2---2--|
G|------------------6-------6----------6-------6-----4-------4--------|
D|--------------------------------------------------------------------|
A|--------------------------------------------------------------------|
E|--------------------------------------------------------------------|


Verse: 2 (You can also do here like the 1st verse)

     F#        
I lose myself in all these fights
     C#                 
I lose my sense of wrong and right
  Ebm     B       
I cry, I cry
         F#                         C#       
It's shaking from the pain that's in my head
                           Ebm       
I just wanna crawl into my bed
                            B     
And throw away the life I led
                          B                           
But I won't let it die, but I won't let it die


Chorus:
              F#          C#             Ebm                 
But now it's over, it's over, why is it over?
    B                                   
We had the chance to make it
          F#          C#               Ebm            
Now it's over, it's over, it can't be over
     B                                                  
I wish that I could take it back


Bridge:

G#m           B                    F#
I'm falling apart, I'm falling apart
                                              
Don't say this won't last forever
G#m                  B                         F
You're breaking my heart, you're breaking my heart
              C#               G#m         B
Don't tell me that we will never be together
          F#            C#                             
We could be, over and over
        G#m       B-C#        
We could be, forever

G#m           B                    F#
I'm falling apart, I'm falling apart
                                              
Don't say this won't last forever
G#m                  B                         F
You're breaking my heart, you're breaking my heart
              C#               G#m         B
Don't tell me that we will never be together
          F#            C#                             
We could be, over and over
        G#m       B-C#        
We could be, forever

Chorus:
           F#             C#              Ebm      
It's not over, it's not over, it's never over
    B                            
Unless you let it take you
           F#             C#              Ebm            
It's not over, it's not over, it's not over
    B                              
Unless you let it break you
            F#         
It's not over

    F#                                
E|--2---2---2---2---2---2---2---2---2---2---2---2---2---2---2---2---2--|
B|----2---2---2---2---2---2---2---2---2---2---2---2---2---2---2---2----|
G|---------------------------------------------------------------------|
D|---------------------------------------------------------------------|
A|---------------------------------------------------------------------|
E|---------------------------------------------------------------------|



It’s not over Chords:


Intro: F#-C#-Ebm-B

Verse: 
     F#                                         
My tears run down like razorblades
      C#                                        
And no, I'm not the one to blame
     Ebm            B               
It's you, or is it me?
      F#                                       
And all the words we never say
      C#                                               
Come out and now we're all ashamed
          Ebm                                                   
And there's no sense in playing games
             B                                             
When you've done all you can do

Chorus:
              F#          C#             Ebm                 
But now it's over, it's over, why is it over?
    B                                   
We had the chance to make it
          F#          C#               Ebm            
Now it's over, it's over, it can't be over
     B                                                  
I wish that I could take it back
             F#-C#-Ebm-B       
But it's over


Verse: (same chords in the 1st verse)
                                                      
I lose myself in all these fights
I lose my sense of wrong and right
I cry, I cry
It's shaking from the pain that's in my head
I just wanna crawl into my bed
And throw away the life I led
But I won't let it die, but I won't let it die


Chorus:
              F#          C#             Ebm                 
But now it's over, it's over, why is it over?
    B                                   
We had the chance to make it
          F#          C#               Ebm            
Now it's over, it's over, it can't be over
     B                                                  
I wish that I could take it back

Bridge:

G#m           B                    F#
I'm falling apart, I'm falling apart
                                              
Don't say this won't last forever
G#m                  B                         F
You're breaking my heart, you're breaking my heart
              C#               G#m         B
Don't tell me that we will never be together
          F#            C#                             
We could be, over and over
        G#m       B-C#        
We could be, forever

G#m           B                    F#
I'm falling apart, I'm falling apart
                                              
Don't say this won't last forever
G#m                  B                         F
You're breaking my heart, you're breaking my heart
              C#               G#m         B
Don't tell me that we will never be together
          F#            C#                             
We could be, over and over
        G#m       B-C#        
We could be, forever

Chorus:
           F#             C#              Ebm      
It's not over, it's not over, it's never over
    B                            
Unless you let it take you
           F#             C#              Ebm            
It's not over, it's not over, it's not over
    B                              
Unless you let it break you
            F#         
It's not over
Suggest correction
comments
print report bad tab
2 comments total.
0 reply
metalhead-1995 73 Jan 13, 2011 05:40 AM

Awesome tab, well done, plus, epic song :D

0 reply
MuncHieeZxx 10 Jul 25, 2012 04:16 AM

hey, great tab dude, just thought i'd say, the F that comes in in the bridge, is that barre chord of open? it doesn't sound right? :/
At the end i strum the last twos just as the very ending the last 2s on the b and e string just strum the very last beat slowly sounds better :)

guest
You may want to rate the tab now too:
select rating
Wanna post a correction for this tab? Suggest correction