Oops, an error
Loading. Please wait.

Its Not Over Tab

version 5
version 5

Interactive

52,422 views 3 this week
4 commentsread comments
1 2 3 4 5
x 8
add to favorites
launch autoscroll
font size
0
reset
how to read this tab
guitar tuner
Autoscroll
slow
fast
+/-
esc
set tempo
stop
Help us to improve Ultimate-Guitar.com Take our survey!
×
Author
Difficulty
novice
-------------------------------------------------------------------------------
                             It's not Over - SecondHand Serenade
-------------------------------------------------------------------------------
Tabbed by: French_Guy
Email:
Note: It's my first tab so it's not perfect but i think that's good ;)
Tuning: EADGBe

Intro/Verse
e|-----0-----0-----0-----0-----0-----0-----0-----0---------------------------|
B|---0--0--0--0--0--0--0--0--0--0--0--0--0--0--0--0--------------------------|
G|-9-----9-----4-----4-----6-----6-----2-----2-------------------------------|   X2
D|---------------------------------------------------------------------------|
A|---------------------------------------------------------------------------|
E|---------------------------------------------------------------------------|
End of the Verse
e|-----0-----0-----0-----0-----0-----0-----0-----0-----0-----0---------------|
B|---0--0--0--0--0--0--0--0--0--0--0--0--0--0--0--0--0--0--0--0--------------|
G|-9-----9-----4-----4-----6-----6-----2-----2-----2-----2-------------------|
D|---------------------------------------------------------------------------|
A|---------------------------------------------------------------------------|
E|---------------------------------------------------------------------------|
Chorus
e|-----0-----0-----0-----0-----0-----0-----0-----0---------------------------|
B|---0--0--0--0--0--0--0--0--0--0--0--0--0--0--0--0--------------------------|
G|-9-----9-----4-----4-----6-----6-----2-----2-------------------------------|
D|---------------------------------------------------------------------------|
A|---------------------------------------------------------------------------|
E|---------------------------------------------------------------------------|

e|-----0-----0-----0-----0-----0-----0-----0-----0-----0-----0---------------|
B|---0--0--0--0--0--0--0--0--0--0--0--0--0--0--0--0--0--0--0--0--------------|
G|-9-----9-----4-----4-----6-----6-----2-----2-----2-----2-------------------|
D|---------------------------------------------------------------------------|
A|---------------------------------------------------------------------------|
E|---------------------------------------------------------------------------|

e|-----0-----0-----0-----0-----0-----0-----0-----0---------------------------|
B|---0--0--0--0--0--0--0--0--0--0--0--0--0--0--0--0--------------------------|
G|-9-----9-----4-----4-----6-----6-----2-----2-------------------------------|
D|---------------------------------------------------------------------------|
A|---------------------------------------------------------------------------|
E|---------------------------------------------------------------------------|
2ND VERSE        GUITAR 1
e|-----0-----0-----0-----0-----0-----0-----0-----0---------------------------|
B|---0--0--0--0--0--0--0--0--0--0--0--0--0--0--0--0--------------------------|
G|-9-----9-----4-----4-----6-----6-----2-----2-------------------------------|
D|---------------------------------------------------------------------------|
A|---------------------------------------------------------------------------|
E|---------------------------------------------------------------------------|

e|-----0-----0-----0-----0-----0-----0-----0-----0-----0-----0---------------|
B|---0--0--0--0--0--0--0--0--0--0--0--0--0--0--0--0--0--0--0--0--------------|
G|-9-----9-----4-----4-----6-----6-----2-----2-----2-----2-------------------|
D|---------------------------------------------------------------------------|
A|---------------------------------------------------------------------------|
E|---------------------------------------------------------------------------|
2ND VERSE         GUITAR 2
e|---------------------------------------------------------------------------|
B|---------------------------------------------------------------------------|
G|----------4--------6--------2----------------4--------6--------2-----------|
D|-2--------4--------6--------2-------2--------4--------6--------2-----------|
A|-2--X8----2--X8----4--X8----0--X8---2--X8----2--X8----4--X8----0--X16------|
E|-0----------------------------------0--------------------------------------|
Chorus 2        Guitar 1
e|-----0-----0-----0-----0-----0-----0-----0-----0---------------------------|
B|---0--0--0--0--0--0--0--0--0--0--0--0--0--0--0--0--------------------------|
G|-9-----9-----4-----4-----6-----6-----2-----2-------------------------------|
D|---------------------------------------------------------------------------|
A|---------------------------------------------------------------------------|
E|---------------------------------------------------------------------------|

e|-----0-----0-----0-----0-----0-----0-----0-----0-----0-----0---------------|
B|---0--0--0--0--0--0--0--0--0--0--0--0--0--0--0--0--0--0--0--0--------------|
G|-9-----9-----4-----4-----6-----6-----2-----2-----2-----2-------------------|
D|---------------------------------------------------------------------------|
A|---------------------------------------------------------------------------|
E|---------------------------------------------------------------------------|
Chorus 2       Guitar 2
e|---------------------------------------------------------------------------|
B|---------------------------------------------------------------------------|
G|----------4--------6--------2----------------4--------6--------2-----------|
D|-2--------4--------6--------2-------2--------4--------6--------2-----------|
A|-2--X8----2--X8----4--X8----0--X8---2--X8----2--X8----4--X8----0--X16------|
E|-0----------------------------------0--------------------------------------|
Interlude     Guitar 2 (I don't know the guitar 1 for the interlude)
e|---------------------------------------------------------------------------|
B|---------------------------------------------------------------------------|
G|---------2-------6---------------2-------6-------4-------------------------| X2
D|-2-------2--X4---6--X8---2-------2--X4---6--X4---4--X4---------------------|
A|-2--X4---0-------4-------2--X4---0-------4-------2-------------------------|
E|-0-----------------------0-------------------------------------------------|

e|---------------------------------------------------------------------------|
B|---------------------------------------------------------------------------|
G|---------2-------6---------------2-------6-------4-------------------------|
D|-2-------2--X4---6--X8---2-------2--X2---6--X4---4--X4---------------------|
A|-2--X4---0-------4-------2--X2---0-------4-------2-------------------------|
E|-0-----------------------0-------------------------------------------------|

e|---------------------------------------------------------------------------|
B|---------------------------------------------------------------------------|
G|---------2-------6---------------2-------6-------4-------------------------| X2
D|-2-------2--X4---6--X8---2-------2--X4---6--X4---4--X4---------------------|
A|-2--X4---0-------4-------2--X4---0-------4-------2-------------------------|
E|-0-----------------------0-------------------------------------------------|

REPEAT THE CHORUS 2

Outro
e|----0-----0-----0-----0----------------------------------------------------|
B|--0--0--0--0--0--0----0----------------------------------------------------|
G|-9----9-----9-----9---9----------------------------------------------------|
D|---------------------------------------------------------------------------|
A|---------------------------------------------------------------------------|
E|---------------------------------------------------------------------------|



| /  slide up
| \  slide down
| h  hammer-on
| p  pull-off
| ~  vibrato
| +  harmonic
| x  Mute note
===============================================================================
Suggest correction
comments
print report bad tab
4 comments total. Showing first comments.
+2 reply
vertebraille 347 Aug 16, 2007 05:03 PM

A capo is used for this song. (On the 2nd fret)
Also wrong chords. Sorry, kina decent though.

0 reply
smashbox 60 May 04, 2009 03:11 PM

yes sorry its a capo on 2nd fret... otherwise really good xD

0 reply
Nedrogers 10 Jul 20, 2009 05:22 PM

Theres no capo used. John performed this song on youtube on his couch and there is NO CAPO. This is perfect. 5*

guest
You may want to rate the tab now too:
select rating
Wanna post a correction for this tab? Suggest correction