Oops, an error
Loading. Please wait.

Let It Roll Tab

version 1
version 1

Whole song

Interactive

64,958 views 21 this week
15 commentsread comments
1 2 3 4 5
x 20
add to favorites
launch autoscroll
font size
0
reset
how to read this tab
guitar tuner
Autoscroll
slow
fast
+/-
esc
set tempo
stop
Help us to improve Ultimate-Guitar.com Take our survey!
×
Author
-----------------------------------------------------------------------------
>                * Secondhand Serenade - Let it Roll *                      <
-----------------------------------------------------------------------------

This band makes me smile. <3 
PERU OWNS.

Tuning: standard 


intro/verse:

e|--------------------------------------------------------------------------|
B|--------------------------------------------7-----------------------------|
G|------9---8---9--------9-------8--------9-----9---9------9---8---9--------|
D|----9---9---9---9----7---9---9---9----9---9-----9------9---9---9---9------|
A|--7----------------0-------0-------------------------0--------------------|
E|------------------------------------9-------------------------------------|

pre-chorus: 

"now it's over..."

e|----x-x-x-x-x-x-x--7--7---------------------------------------------------|
B|----x-x-x-x-x-x-x--7--7---------------------------------------------------|
G|----x-x-x-x-x-x-x--8--8---------------------------------------------------|
D|----x-x-x-x-x-x-x--9--9---------------------------------------------------|
A|--0-x-x-x-x-x-x-x--9--9---------------------------------------------------|
E|----x-x-x-x-x-x-x--7--7---------------------------------------------------|

chorus:

e|--------------------------------------------------------------------------|
B|--------------------------------------------------------------------------|
G|------------88888888888-------------8888888888------------8888888888------|
D|--777777777-99999999999-77777777777-9999999999-7777777777-9999999999------|
A|--777777777-99999999999-77777777777-9999999999-7777777777-9999999999------|
E|--555555555-77777777777-55555555555-7777777777-5555555555-7777777777------|

"so let's just...let it roll"

e|--------------------------------------------------------------------------|
B|--------------------------------------------------------------------------|
G|------------------99999999---------------999999999------------------------|
D|--777777777-99999999999999-777777-9999999999999999------------------------|
A|--777777777-99999977777777-777777-9999999777777777------------------------|
E|--555555555-77777777777777-555555-7777777777777777------------------------|

e|--------------------------------------------------------------------------|
B|--------------------------------------------7-----------------------------|
G|------9---8---9--------9-------8--------9-----9---9------9---8---9--------|
D|----9---9---9---9----7---9---9---9----9---9-----9------9---9---9---9------|
A|--7----------------0-------0-------------------------0--------------------|
E|------------------------------------9-------------------------------------|

Second Verse

Guitar 1

e|--------------------------------------------------------------------------|
B|--------------------------------------------7-----------------------------|
G|------9---8---9--------9-------8--------9-----9---9------9---8---9--------|
D|----9---9---9---9----7---9---9---9----9---9-----9------9---9---9---9------|
A|--7----------------0-------0-------------------------0--------------------|
E|------------------------------------9-------------------------------------|

Guitar 2

e|--x-x-x-x-x-x-x--------|
B|--x-x-x-x-x-x-x--------|
G|--x-x-x-x-x-x-x--------|  repeat as many times.
D|--x-x-x-x-x-x-x--------|
A|--x-x-x-x-x-x-x--------|
E|--x-x-x-x-x-x-x--------|

"and i know it's late but i am waiting..." (fingerpicked sounds better)

e|--7---7-5-4--7-7-7-5-4--|
B|------------------------|
G|------------------------|
D|------------------------|
A|------------------------|
E|------------------------|

pre-chorus: 

"now it's over..."

e|----x-x-x-x-x-x-x--7--7---------------------------------------------------|
B|----x-x-x-x-x-x-x--7--7---------------------------------------------------|
G|----x-x-x-x-x-x-x--8--8---------------------------------------------------|
D|----x-x-x-x-x-x-x--9--9---------------------------------------------------|
A|--0-x-x-x-x-x-x-x--9--9---------------------------------------------------|
E|----x-x-x-x-x-x-x--7--7---------------------------------------------------|

chorus:

e|--------------------------------------------------------------------------|
B|--------------------------------------------------------------------------|
G|------------88888888888-------------8888888888------------8888888888------|
D|--777777777-99999999999-77777777777-9999999999-7777777777-9999999999------|
A|--777777777-99999999999-77777777777-9999999999-7777777777-9999999999------|
E|--555555555-77777777777-55555555555-7777777777-5555555555-7777777777------|

"so let's just...let it roll"

e|--------------------------------------------------------------------------|
B|--------------------------------------------------------------------------|
G|------------------99999999---------------999999999------------------------|
D|--777777777-99999999999999-777777-9999999999999999------------------------|
A|--777777777-99999977777777-777777-9999999777777777------------------------|
E|--555555555-77777777777777-555555-7777777777777777------------------------|

e|--------------------------------------------------------------------------|
B|--------------------------------------------------------------------------|
G|------9---8---9-------9---8---9-------9---8---9-------9---8--9------------|
D|----9---9---9---9---9---9---9---9---9---9---9---9---9---9--9---9----------|
A|--7---------------7---------------7---------------7-----------------------|
E|--------------------------------------------------------------------------|

bridge:

"just don't waste your night before..."

Guitar 1

e|--------------------------------------------------------------------------|
B|----------------------------------------------------------7---------------|
G|--8---9---8---9---8---9---9---9---8---9---8---9---8---9-----9---9---------|
D|----9---9---9---9---9---9---9---9---9---9---9---9---9---9-----9-----------|
A|--------------------------------------------------------------------------|
E|--------------------------------------------------------------------------|

e|--------------------------------------------------------------------------|
B|--------------------------7------------------------7----------------------|
G|--8---9---8---9---8---9-----9---9--8---9---8---9-----9---9--8---9---8---8-|
D|----9---9---9---9---9---9-----9------9---9---9---9-----9------9---9---9---|
A|--------------------------------------------------------------------------|
E|--------------------------------------------------------------------------|

Guitar 2 (play with that)

e|--x-x-x-x-x-x-x-x-x-x-x-x-x-x-x-x---77------------------------------------|
B|--x-x-x-x-x-x-x-x-x-x-x-x-x-x-x-x---77------------------------------------|
G|--8-9-8-9-8-9-8-9-8-9-8-9-8-9-8-9---88------------------------------------|
D|--9-9-9-9-9-9-9-9-9-9-9-9-9-9-9-9---99------------------------------------|
A|--7-7-7-7-7-7-7-7-7-7-7-7-7-7-7-7---99------------------------------------|
E|--x-x-x-x-x-x-x-x-x-x-x-x-x-x-x-x---77------------------------------------|

pre-chorus and chorus change


Guitar 1

e|-------------------------------------------------------------------|
B|--------------------------7--------------------------------7-------|
G|--9-8---9-8---9-8---9-8-----9---9--9-8---9-8---9-8---9-8-----9---9-|(4x)
D|------9-----9-----9-----9-----9--------9-----9-----9-----9-----9---|
A|-------------------------------------------------------------------|
E|-------------------------------------------------------------------|

e|-------------------------------------------------------------------|repeat
B|-------------------------------------------------------------------| until
G|--9-8---9-8---8-9---8-9---8-9---8-9---8-9---8-9---8-9---8-9---8-9--| song
D|------9-----9-----9-----9-----9-----9-----9-----9-----9-----9-----9| ends
A|-------------------------------------------------------------------|
E|-------------------------------------------------------------------|

Guitar 2

e|--------------------------------------------------------------------------|
B|--------------------------------------------------------------------------|
G|------------88888888888-------------8888888888------------8888888888------|
D|--777777777-99999999999-77777777777-9999999999-7777777777-9999999999------|
A|--777777777-99999999999-77777777777-9999999999-7777777777-9999999999------|
E|--555555555-77777777777-55555555555-7777777777-5555555555-7777777777------|

e|-------------------------------------------------------| repeat 
B|-------------------------------------------------------| until
G|------------------99999999---------------999999999-----| the
D|--777777777-99999999999999-777777-9999999999999999-----| end
A|--777777777-99999977777777-777777-9999999777777777-----|
E|--555555555-77777777777777-555555-7777777777777777-----|

"Let it roll..."

e|----7~----------------|
B|----7~----------------|
G|----8~----------------|
D|----9~----------------|
A|----9~----------------|
E|----7~----------------|

| /  slide up
| \  slide down
| h  hammer-on
| p  pull-off
| ~  vibrato
| +  harmonic
| x  Mute note
============================================================================
Suggest correction
comments
print report bad tab
15 comments total. Showing first comments.
+1 reply
Averna_22 10 Oct 03, 2006 09:41 PM

this tab is perfect and this is one of my favorite bands
5*

-1 reply
asdfasdfasdfasd 10 Nov 07, 2006 07:50 PM

secondhand serenade isnt a band, its a solo artist. but good tab anyway

+2 reply
ko300zx 10 Nov 28, 2006 09:55 PM

e|--------------------------------------------------------------------------|
B|--------------------------------------------7-----------------------------|
G|------9---8---9--------9-------8--------9-----9---9------9---8---9--------|
D|----9---9---9---9----7---9---9---9----9---9-----9------9---9---9---9------|
A|--7----------------0-------0----------------------------------------------|
E|------------------------------------9--------------**7**------------------|
just change that 0 to a 7...good job

guest
You may want to rate the tab now too:
select rating
Wanna post a correction for this tab? Suggest correction