Oops, an error
Loading. Please wait.

Like A Knife Tab

version 1
version 1

Whole song

5,512 views 9 this week
no commentswrite comment
1 2 3 4 5
please rate
add to favorites
launch autoscroll
font size
0
reset
how to read this tab
guitar tuner
Tab Pro tools
  • play this tab
  • loop segment
  • change instrument
  • show fretboard
  • metronome
×
Best way to learn
"Like A Knife"
Autoscroll
slow
fast
+/-
esc
set tempo
stop
Difficulty
novice
   ahm, this is my first tab so i hope this is right...^_^
   this can be performed both in electric and acoustic guitars
   i watched and tabbed this one so hope this is it...

1st, this is the intro

Eb|------------------------------------------------------7------7----|
Bb|--------------------------------7---------------------------------|
Gb|----9--------9-----8--8----9------9-----9--8---9----9---9--9--9-9-|
Db|--9---9----9---9-----9--9----9--------9------9----9-------9----9--|
Ab|7--------7--------------------------------------------------------|
Eb|------------------------------------9-----------------------------|

---------------------------------------------------------------------|
---------------------------------------------------------------------|
------9--8---9--9-----9--8---9--9------8--9---8--9------8-9---8---9--|
----9------9---9----9------9---9-----9------9---9-----9-----9---9----|
--0---------------0--------------------------------------------------|
-----------------------------------7----------------7----------------|

2nd, the lead intro

eb-----------------18-----18-16-15-15-16-15-(3x)---------------------|
Bb-----------15-16---15-16-------------------------------------------|
Gb-------------------------------------------------------------------|
Db-------------------------------------------------------------------|
Ab-------------------------------------------------------------------|
Eb-------------------------------------------------------------------|

eb-----------------18-----18------------18-----18------16------------|
Bb-----------15-16---15-16--15-16-15-16---15-16--15-16---------------|
Gb-------------------------------------------------------------------|
Db-------------------------------------------------------------------|
Ab-------------------------------------------------------------------|
Eb-------------------------------------------------------------------|

3rd, this is in the part "I know i'm not the best for you..."

eb------------16~---18~---16~---15-----------------------------------|
Bb---------------------------------16--------------------------------|
Gb-------------------------------------------------------------------|
Db-------------------------------------------------------------------|
Ab-------------------------------------------------------------------|
Eb-------------------------------------------------------------------|

4th, ...in the part before the 2nd verse...

eb------------16~---18~---16-15~------15-----------------------------|
Bb------------------------------16-15----15~-------------------------|
Gb-------------------------------------------------------------------|
Db-------------------------------------------------------------------|
Ab-------------------------------------------------------------------|
Eb-------------------------------------------------------------------|

(in the part "stay with me, or watch me bleed" and in the last chorus, you will just 
the lead intro)

5th, this is the part after the last chorus

eb------------16~---18~---16~-15~---15~---18~---18~------------------|
Bb-------------------------------16----15----15----------------------|
Gb-------------------------------------------------------------------|
Db-------------------------------------------------------------------|
Ab-------------------------------------------------------------------|
Eb-------------------------------------------------------------------|
comments
We did not receive enough feedback on this tab! Please rate:
print report bad tab
1 2 3 4 5
I want to post or [tab]
guest
You may want to rate the tab now too:
select rating
Please do not post tabs as comments. Select "correction" instead!