Oops, an error
Loading. Please wait.

Maybe Tab

version 1
version 1

Whole song

Interactive

198,847 views 63 this week
17 commentsread comments
1 2 3 4 5
excellent!
x 28
add to favorites
launch autoscroll
font size
0
reset
how to read this tab
guitar tuner
Autoscroll
slow
fast
+/-
esc
set tempo
stop
Help us to improve Ultimate-Guitar.com Take our survey!
×
Author
Difficulty
novice
-------------------------------------------------
        "Maybe" - Secondhand Serenade
-------------------------------------------------
Tabbed by: Justin RiRaY
Email: Pakman7JR@hotmail.com       AIM: BeatPwner
   www.myspace.com/riray

Tuning: eBGDAE

          *** GUITAR 1 ***

     INTRO / CHORUS

e|--0--0--0--0---0--0--0-0-0--|
B|--0--0--0--0---0--0--0-0-0--|
G|--1--4--4--2---1--4--4-4-2--|
D|--2--4--2--2---2--4--2-4-2--|
A|--2--2--4--0---2--2--4-2-0--|
E|--0--0--0--0---0--0--0-0-0--|


     VERSE

e|--0--0--0--0---|
B|--0--0--0--0---|
G|--1--4--4--2---|
D|--2--2--4--2---|
A|--2--4--2--0---|
E|--0--0--0--0---|
(palm mutes in rhythm)


     BRIDGE

e|--0~--0~--0~-0~-0~--|
B|--0~--0~--0~-0~-0~--|
G|--2~--2~--4~-4~-2~--|
D|--2~--2~--2~-4~-2~--|
A|--0~--0~--4~-2~-0~--|
E|--0~--0~--0~-0~-0~--|


     BREAKDOWN
 
e|--0--0--0--0---0--0--0--0--|
B|--0--0--0--0---0--0--0--0--|
G|--1--2--4--4---1--2--4--4--|
D|--2--2--2--4---2--2--2--4--|
A|--2--0--4--2---2--0--4--2--|
 
e|--0-0--0--0--0-0--0--0--0-0--0--0--0~--|
B|--0-0--0--0--0-0--0--0--0-0--0--0--0~--|
G|--1-1--2--4--1-1--2--4--1-1--2--4--4~--|
D|--2-2--2--4--2-2--2--4--2-2--2--4--4~--|
A|--2-2--0--2--2-2--0--2--2-2--0--2--2~--|
E|--0-0--0--0--0-0--0--0--0-0--0--0--0~--|


          *** GUITAR 2 ***

     INTRO/CHORUS
 
e|-0-2-4-4-5-4-2-4-4-5-7--4-4-5-4-2-4-4-5-2--|
B|--0-0-0-0---0---0-0-0-0--0-0---0---0-0-0-0-|
G|-------------------------------------------|
D|-------------------------------------------|
A|-------------------------------------------|
E|-------------------------------------------|
 
e|--4-4-5-4-2-4-4-5-7--4-5-2-4-0-2-4-5-7----|
B|---0-0---0---0-0-0-0--0-0-0-0-0-0-0-0-----|
G|------------------------------------------|
D|------------------------------------------|
A|------------------------------------------|
E|------------------------------------------|


     2nd VERSE 
 
e|-------------5-7------4-0-----5-7-----|
B|-----------------7--------------------|
G|--------------------------------------|
D|--------------------------------------|
A|--------------------------------------|
E|--------------------------------------|
 
e|--4-5-4-2-0-2-0-2-4-5-7-4-5-4---------|
B|---0-0-0-0-0-0-0-0-0-0-0-0-0-0--------|
G|--------------------------------------|
D|--------------------------------------|
A|--------------------------------------|
E|--------------------------------------|


     BRIDGE
 
e|--0---2-4--0---4-0--0---0-2--0---4-5-7--|
B|---0-0-0-0--0-0-0-0--0-0-0-0--0-0-0-0---|
G|----------------------------------------|
D|----------------------------------------|
A|----------------------------------------|
E|----------------------------------------|
 
e|---0-2-0---4-2-0-2-0-2-4-5-4-5-7--------|
B|--0-0-0-0-0-0-0-0-0-0-0-0-0-0-0---------|
G|----------------------------------------|
D|----------------------------------------|
A|----------------------------------------|
E|----------------------------------------|


     BREAKDOWN
 
e|-7-5-4-5-4-0-4-5--4-4-5-4--2-4-5-4-5----|
B|--0---0---0-0-0-0--0-0-0-0--0---0-0-0---|
G|----------------------------------------|
D|----------------------------------------|
A|----------------------------------------|
E|----------------------------------------|
 
e|-7-5-4-5-4--0-2-5-7--4-5-4--4-5-4-------|
B|--0---0----0-0-0-0-0----0-0--0-0-0------|
G|----------------------------------------|
D|----------------------------------------|
A|----------------------------------------|
E|----------------------------------------|

e|-0-4-5-7--4-5-2-4--0-4-5-7--------------|
B|--0-0-0-0--0-0-0-0--0-0-0-0-------------|
G|----------------------------------------|
D|----------------------------------------|
A|----------------------------------------|
E|----------------------------------------|
Suggest correction
comments
print report bad tab
17 comments total. Showing first comments.
+1 reply
shartface 10 wrote on August 14 2006, 08:29 pm

thats the same intro as "Best of Me" by starting line

+1 reply
ckae58 93 wrote on November 8 2006, 03:25 am

hey good job

+1 reply
ckae58 93 wrote on November 8 2006, 03:25 am

5 stars

guest
You may want to rate the tab now too:
select rating
Please do not post tabs as comments. Select "correction" instead!