Oops, an error
Loading. Please wait.

Vulnerable Tab

version 1
version 1

Whole song

Interactive

173,265 views 48 this week
18 commentsread comments
1 2 3 4 5
accurate
x 23
add to favorites
launch autoscroll
font size
0
reset
how to read this tab
guitar tuner
Autoscroll
slow
fast
+/-
esc
set tempo
stop
Help us to improve Ultimate-Guitar.com Take our survey!
×
Author
RiRaY 1,733
----------------------------------
"Vulnerable" - Secondhand Serenade
----------------------------------
Tabbed by: Justin RiRaY
Email: Pakman7JR@hotmail.com       
AIM: BeatPwner

     I am not sure this tab is 100%
accurate, but due to so many people
requesting me to tab the rest of
this I did my best to tab it. Sorry
if it is a little off, but for the 
most part, it sounds fine.
     I couldn't find any lyrics for
the song, so I listened and typed
them out at the bottom of the tab.

Tuning: eBGDAE

     INTRO
 
e|-----3---1-0----------3--|
B|---------------1------1--|
G|----0--0-----0------0----| X 2
D|-------------------------|
A|--3----------------------|
E|------------------1------|


     VERSE

e|-0-3-1-0--0-3-1-0--|
B|-1-1-1-1--1-1-1-1--|
G|-0-0-0-0--0-0-0-0--|
D|-2-2-2-2--2-2-2-2--|
A|-3-3-3-3--0-0-0-0--|
E|-------------------|

e|-0-0-1-0--0>-------|
B|-1-1-1-1--1>-------|
G|-0-0-0-0--0>-------|
D|-2-2-2-2--3>-------|
A|-3-3-3-3--3>-------|
E|----------1>-------|


     Pre-CHORUS

e|--0--0--0--0-0-----0--|
B|--1--1--1--1-1-----1--|
G|--0--0--0--0-0--0--0--|
D|--2--0--2--2-3--3--0--|
A|--3--3--0--0-3--3--2--|
E|--0--0--0--0-1--1--3--|


     CHORUS

e|-0--0--0--0-0--0--0--0-0--|
B|-1--1--1--1-1--1--1--1-1--|
G|-0--0--0--0-0--0--0--0-0--|
D|-2--0--3--2-0--2--0--3-x--|
A|-3--2--3--0-2--3--2--3-3--|
E|-------1----3--------1-1--|


     BRIDGE

e|-00----0----0-0------|
B|-11-1--1-1--1--1--1--|
G|-00--0-00-0-00---0-0-|
D|-222---0----2---2----|
A|-00----2----3--------|
E|-00----0----0--------|


     OUTRO

e|-3--0--0--0--|
B|-x--1--1--1--|
G|-0--0--0--0--|
D|-3--0--2--2--|
A|-3--2--0--3--|
E|-1--3--------|
Suggest correction
What's this?
You can suggest a correction to this tab. Community and Mods will review your correction and vote to approve or reject it.
comments
print report bad tab
18 comments total. Showing first comments.
0 reply
celks2011 12 wrote on October 9 2006, 05:55 pm

good job.....but to me it sounds better capoed at 2

0 reply
XPandaXBear 38 wrote on January 13 2007, 12:25 pm

how many times do u strum a chord

0 reply
bacdoliljo 73 wrote on March 24 2007, 12:05 am

e|-0-3-1-0--0-3-1-0--|
B|-1-1-1-1--1-1-1-1--|
G|-0-0-0-0--0-0-0-0--|
D|-2-2-2-2--2-2-2-2--|
A|-3-3-3-3--0-0-0-0--|
E|-------------------|
the last 4 chords are incorrect. i can't figure out the correct chord but there are some lower notes in there...

guest
You may want to rate the tab now too:
select rating
Please do not post tabs as comments. Select "correction" instead!