Oops, an error
Loading. Please wait.

Vulnerable tab

version 2
version 2

Whole song

Interactive

17,250 views 1 this week
no commentswrite comment
1 2 3 4 5
2 more votes to show rating
add to favorites
×
Save as Personal and add changes to this tab that will be seen only by you. Learn more ›
×
You can save this tab as Personal to edit and correct it or add notes. All changes will be seen only by you. Learn more »
launch autoscroll
font size
0
reset
how to read this tab
guitar tuner
edit
Autoscroll
slow
fast
+/-
esc
set tempo
stop
Author
---------------------------------
SECONDHAND SERENADE- Vulnerable
---------------------------------

This is my first tab.
so let me know how it works for you.

This is more for people with smaller hands
Who have difficulty doing some of the other chords
People have tabbed for this song
It’s the way I play it, and it sounds just about right.
Just figure out the strumming for yourself.


Tuning: Standard

~= Let it ring
^= soft strumming

INTRO

e|-----3---1-0----------3-------3---1-0----------3----|
B|---------------1------1-----------------1------1----|
G|---0---0-----0------0-------0---0-----0------0------|
D|----------------------------------------------------|
A|-3------------------------3----------------1--------|
E|------------------1---------------------------------|

VERSE

  Share with me the blankets that you’re wrapped in because it’s
e|-0-----------------3---------0-----------3-------|
B|-1-----------------1---------1-----------1-------|
G|-0-----------------0---------0-----------0-------|
D|-2-----------------2---------2-----------2-------|
A|-3-----------------3---------0-----------0-------|
E|-0-----------------0---------0-----------0-------|


  Cold outside. It’s cold outside
e|-0-----------------0---------0-----------0-------|
B|-1-----------------1---------1-----------1-------|
G|-0-----------------0---------0-----------0-------|
D|-2-----------------0---------0-----------2-------|
A|-3-----------------2---------0-----------0-------|
E|-0-----------------3---------2-----------0-------|

  Share with me the secrets that you      kept in because it’s
e|-0-----------------3---------0-----------3-------|
B|-1-----------------1---------1-----------1-------|
G|-0-----------------0---------0-----------0-------|
D|-2-----------------2---------2-----------2-------|
A|-3-----------------3---------0-----------0-------|
E|-0-----------------0---------0-----------0-------|

  Cold inside. It’s cold   inside
e|-0-----------------0---------0-----------0-------|
B|-1-----------------1---------1-----------1-------|
G|-0-----------------0---------0-----------0-------|
D|-2-----------------0---------0-----------2-------|
A|-3-----------------2---------0-----------0-------|
E|-0-----------------3---------2-----------0-------|

PRE CHORUS

  Your slow shaking fingertips show that you’re scared like me
e|------0~-----------------------3~---------------------------|
B|------1~-----------------------1~---------------------------|
G|------0~-----------------------0~---------------------------|
D|------2~-----------------------2~---------------------------|
A|------3~-----------------------3~---------------------------|
E|------0~-----------------------0~---------------------------|





        So lets pretend we’re alone
e|------0~---0------3-----------------------------------------|
B|------1~---1------1-----------------------------------------|
G|------0~---0------0-----------------------------------------|
D|------2~---2------2-----------------------------------------|
A|------0~---0------0-----------------------------------------|
E|------0~---0------0-----------------------------------------|
         (Start regular strumming after ‘lets’)

  And I know you may be scared
e|------0-----------------------------------------------------|
B|------1-----------------------------------------------------|
G|------0-----------------------------------------------------|
D|------2-----------------------------------------------------|
A|------3-----------------------------------------------------|
E|------0-----------------------------------------------------|

  And I know we’re unprepared but I don’t care
e|------0---------------0-------------------0-----------------|
B|------1---------------1-------------------1-----------------|
G|------0---------------0-------------------0-----------------|
D|------0---------------0-------------------2-----------------|
A|------2---------------0-------------------0-----------------|
E|------3---------------2-------------------0-----------------|

CHORUS
  Tell me tell me what makes you think that you are invincible
e|--0-------3------------0-------------------3----------0------|
B|--1-------1------------1-------------------1----------1------|
G|--0-------0------------0-------------------0----------0------|
D|--2-------2------------2-------------------2----------2------|
A|--3-------3------------0-------------------0----------3------|
E|--0-------0------------0-------------------0----------0------|

  I can see it in your eyes that you’re so sure
e|-------0---------------0-------------------0-----------------|
B|-------1---------------1-------------------1-----------------|
G|-------0---------------0-------------------0-----------------|
D|-------0---------------0-------------------2-----------------|
A|-------2---------------0-------------------0-----------------|
E|-------3---------------2-------------------0-----------------|

  Please don’t tell me that I’m the only one that’s vulnerable
e|--0-----------3------------0------------3-----------0--------|
B|--1-----------1------------1------------1-----------1--------|
G|--0-----------0------------0------------0-----------0--------|
D|--2-----------2------------2------------2-----------0--------|
A|--3-----------3------------0------------0-----------2--------|
E|--0-----------0------------0------------0-----------3--------|

  Impossible
e|-0----0(^~)-----------------------------------------------------|
B|-1----1(^~)-----------------------------------------------------|
G|-0----0(^~)-----------------------------------------------------|
D|-0----2(^~)-----------------------------------------------------|
A|-0----0(^~)-----------------------------------------------------|
E|-2----0(^~)-----------------------------------------------------|
         (strum softly and let ring out on the last chorus)
Verse 2
I was born to tell you I love you
Isn’t that a song already?
I get a B in originality
And it’s true I can’t go on without you
Your smile makes me see clearly
If you could only see in the mirror what I see

PRECHORUS
+
CHORUS

BRIDGE

   Slow    down    girl you’re not going anywhere
e|---------------------------------------3~------------------|
B|-----1-------1-------1-------1---------1~------------------|
G -------0-------0-------0-------0-------0~------------------| 
D|---2-------2-------2-------2-----------2~------------------|
A|-0-------2-------3-------3-------------0~------------------|
E|---------------------------------------0~------------------|

  Just wait around and see maybe I’m much more
e|------0---------------3---------3---3----3----------------------|
B|------1---------------1---------1---1----3----------------------|
G|------0---------------0---------0---0----0----------------------|
D|------2---------------2---------0---0----0----------------------|
A|------0---------------0---------2---0----0----------------------|
E|------0---------------0---------0---2----2----------------------|

  You never know what lies ahead I promise I can be anyone
e|------0---------------3-----------0-------------0-----3-----|
B|------1---------------1-----------1-------------1-----1-----|
G|------0---------------0-----------0-------------0-----0-----|
D|------2---------------2-----------2-------------2-----2-----|
A|------0---------------0-----------3-------------0-----0-----|
E|------0---------------0-----------0-------------0-----0-----|

  I can be anything. Just because you were hurt doesn’t mean  
e|------3-------3------------0--------------0------------3--------|
B|------1-------3------------1--------------1------------1--------|
G|------0-------0------------0--------------0------------0--------|
D|------0-------0------------2--------------2------------2--------|
A|------2-------0------------0--------------3------------3--------|
E|------0-------2------------0--------------0------------0--------|

  You shouldn’t bleed. I can be anyone, anything
e|----------------3-----------3---3--------3----------------------|
B|----------------1-----------1---1--------3----------------------|
G|----------------0-----------0---0--------0----------------------|
D|----------------2-----------0---0--------0----------------------|
A|----------------0-----------2---0--------0----------------------|
E|----------------0-----------0---2--------2----------------------|

  I promise I can be what you need  (I can be what you need)
e|------0----------0------------0------------------------0-------|
B|------1----------1------------1------------------------1-------|
G|------0----------0------------0------------------------0-------|
D|------2----------0------------0------------------------2-------|
A|------3----------2------------0------------------------0-------|
E|------0----------3------------2------------------------0-------|

CHORUS


Le fin.
Suggest correction
Creating personal tab
Creating personal tab
You can edit any tab online and save it as your Personal.

You can edit, replace or remove any tab part or add personal notes – all changes will be seen only by you.

Personal tabs can be accessed anytime from any device, even offline.
Learn more »
Give kudos to tab author, rate the tab!
1 2 3 4 5
comments
print report bad tab
guest
You may want to rate the tab now too:
select rating
Wanna post a correction for this tab? Suggest correction