Oops, an error
Loading. Please wait.
We have Chord Pro version of Your Call.
It's the closest thing you can get to the original song and it has interactive parts. Check out the tab »
×
2,768 views 1 this week
1 commentread comment
1 2 3 4 5
2 more votes to show rating
add to favorites
×
Save as Personal and add changes to this tab that will be seen only by you. Learn more ›
×
You can save this tab as Personal to edit and correct it or add notes. All changes will be seen only by you. Learn more »
launch autoscroll
font size
0
reset
guitar tuner
edit
Autoscroll
slow
fast
+/-
esc
set tempo
stop
Author
Difficulty
-------------------------------------------------------------------------------
                             SONG NAME - Band Name
-------------------------------------------------------------------------------
Tabbed by: Tom Renwick
E-mail: tom@bsar.info

Tuning: Standard

The bass line follows the bottom piano part for most of the song, starting in the first chorus:

"I was born..."
G|-------------------------------------------------------------------------|
D|----------------------------------1--------------------------------------| X2
A|-----------------4-------------------------------2-----------------------|
E|2------------------------------------------------------------------------|

"Stripped and polished..."              The last phrase of this-before the chorus-goes like this:
G|---------------------|                      |----------------------|
D|-----------4---------|X5                    |----------4--------6\-| X1
A|2----4---------------|                      |2----4----------------|
E|---------------------|                      |----------------------|

"I was born..."
G|-------------------------------------------------------------------------|
D|----------------------------------1--------------------------------------| X2
A|-----------------4-------------------------------2-----------------------|
E|2------------------------------------------------------------------------|

"And I'm tired..."
G|----------------------|
D|4---------------------| X8
A|-----4----2----4------|
E|----------------------|

"I was born..."
G|------------------------------------------------------------------------|
D|--------------------------------1-1-1-1-1-1-1-1-------------------------| X4
A|----------------4-4-4-4-4-4-4-4-----------------2-2-2-2-2-2-2-2-2-------|
E|2-2-2-2-2-2-2-2---------------------------------------------------------|

The last note is a B which you let ring as the acoustic guitar part finishes the song.
G|----------------------|
D|----------------------| 
A|2---------------------|
E|----------------------|
===============================================================================

            
            
Suggest correction
Creating personal tab
Creating personal tab
You can edit any tab online and save it as your Personal.

You can edit, replace or remove any tab part or add personal notes – all changes will be seen only by you.

Personal tabs can be accessed anytime from any device, even offline.
Learn more »
Give kudos to tab author, rate the tab!
1 2 3 4 5
comments
print report bad tab
1 comment total.
0 reply
FreclyFace 10 Sep 26, 2012 02:08 PM

Its amazing!! Best tab I've found in a while!!
Well it would be if I played tab... ;)

guest
You may want to rate the tab now too:
select rating
Wanna post a correction for this tab? Suggest correction